Ac Dc - Tnt Chords & Tabs

 

Tnt Chords & Tabs

Ac Dc Chords & Tabs

Version: 9 Type: Tab 0 ratings
1 star 2 stars 3 stars 4 stars 5 stars
comments

Tnt Tab

Band:Ac/Dc
Track Title:TNT
Album: Unknown
Transcribed By: Ace Of Spades
Email: freak_on_a_leash_6904@hotmail.com
Tuning: Standard



Intro: [Repeat 12x]
[00:07-00:51]  
e]-x---x---x----------- 
b]-x---x---x-----------
g]-x---x---x-----------
d]-2---x---x-----------
a]-2---5---5-----------
e]-0---3---3---3--5--3-


"Cause Im TNT.." Chorus [Repeat 4x]
[00:55-1:09]
e]-x-----x---
b]-x-----x---
g]-x-----x---
d]-x-----2---
a]-7/5---2---
e]-5/3---0---
[ Tab from: http://www.guitartabs.cc/tabs/a/ac_dc/tnt_tab_ver_9.html ]
Verse [Repeat 10x]
[1:13-1:49] 
e]-x---x---x----------- 
b]-x---x---x-----------
g]-x---x---x-----------
d]-2---x---x-----------
a]-2---5---5-----------
e]-0---3---3---3--5--3-

"Cause Im TNT.." Chorus [Repeat 4x]
[1:52-2:06]
e]-x-----x---
b]-x-----x---
g]-x-----x---
d]-x-----2---
a]-7/5---2---
e]-5/3---0---

[2:07-2:24] Solo

"TNT..TNT.." [Repeat 8x]
[2:27-2:58] 
e]-x-----x---
b]-x-----x---
g]-x-----x---
d]-x-----2---
a]-7/5---2---
e]-5/3---0---

Outro
[2:59-3:28]
Comments