Ac Dc - Tnt Chords & Tabs

 

Tnt Chords & Tabs

Ac Dc Chords & Tabs

Version: 6 Type: Tab 0 ratings
1 star 2 stars 3 stars 4 stars 5 stars
comments

Tnt Tab

   
AC\DC
T.N.T.
(Bon Scott, Malcom Young and Angus Young)

Intro (let ring for 4 bars)
      E
E-----0-----|
B-----0-----|
G-----1-----|
D-----2-----|
A-----2-----|
E-----0-----|

Rhythm Figure 1

E-------------------|-------------------------|------------------|
B-----------3----2--|---------2---------------|----------3----2--|
G---1-------0----2--|---------2------------1--|----------0----2--|
D---2-------0----2--|---------2------------2--|----------0----2--|
A---2------------0--|---------0------------2--|---------------0--|
E---0-------3-------|-----3--------3B4-----0--|----------3-------|

End Rhythm Figure 1

E--------------------|
B-----2--------------|
G-----2-----------1--|
D-----2-----------2--|
A-----0-----------2--|
E--3-----3B4------0--|

Rhythm Figure 2

E------------|--------------------|-----------------|----------------|
B----3----2--|--------2-----------|---------3----2--|------2---------|
G----0----2--|--------2--------1--|---------0----2--|------2-------1-|
D----0----2--|--------2--------2--|---------0----2--|------2-------2-|
A---------0--|--------0--------2--|--------------0--|------0-------2-|
E----3-------|-----3-----3B4---0--|---------3-------|---3-----3B4--0-|

Rhythm Figure 3
[ Tab from: http://www.guitartabs.cc/tabs/a/ac_dc/tnt_tab_ver_6.html ]
E----------------------------|
B----2-----------------------|
G----2------------1----------|
D----2------------2----------|
A----0------------2----------|
E----------3------0----------|

Lyrics:

See me ride out of the sunset on your color t.v. screen,
I'm for all that I can get, if you know what I mean.
Women to the left of me, and women to the right.
Ain't got no gun, ain't got no knife,
Don't you start no fight.

'Cause I'm T.N.T.,
I'm dynamite,
T.N.T.,
and I'll win the fight.
T.N.T.,
I'm a power load,
T.N.T.,
Watch me explode.

I'm dirty, mean, and mighty unclean.
I'm a wanted man,
Public enemy number one,
Understand?
So lock up your daughter,
Lock up your wife,
Lock up your back door,
Run for your life.
The man is back in town,
So don't you mess me around.

Chorus.

Enjoy!

Questions, comments, corrections send to bird_dawg11@yahoo.com

"For those about to rock, we salute you!"  AC/DC

TNTTNTTNTTNTTNTTNTTNT  TNTTNT          TNTTNT  TNTTNTTNTTNTTNTTNTTNTTN
TNTTNTTNTTNTTNTTNTTNT  TNTTNTTN        TNTTNT  TNTTNTTNTTNTTNTTNTTNTTN
       TNTTNTT         TNTTNTTNTN      TNTTNT          TNTTNTT
       TNTTNTT         TNTTNTNTTNTTN   TNTTNT          TNTTNTT
       TNTTNTT         TNTTNT TNTTNTTNTTNTTNT          TNTTNTT
       TNTTNTT         TNTTNT   TNTTNTTNTTNTT          TNTTNTT
       TNTTNTT         TNTTNT     TNTTNTTNTTN          TNTTNTT
       TNTTNTT         TNTTNT      TNTTNTTNTT          TNTTNTT
       TNTTNTT         TNTTNT       TNTTNTTNT          TNTTNTT
Comments