Ac Dc - Tnt Chords & Tabs

 

Tnt Chords & Tabs

Ac Dc Chords & Tabs

Version: 11 Type: Tab 0 ratings
1 star 2 stars 3 stars 4 stars 5 stars
comments

Tnt Tab

   
ARTIST: ACDC
SONG: TNT
ALBUM: High Voltage
TABBED BY: Wes (DGER)
TUNING: Standard
Solo Included

Kay...

B=Bend
FB=Full Bend
HB=Half Bend
QB=Quarter Bend
.=Palm Mute particular note(s)
o=Repeat as many times as noted
~Hold Note
r=Release a bend.

Yada yada.  Just use common sense.  Very Easy Song for anyone to play until it gets to 
solo
which some may not be able to get.  Listen to the song for the timing and all that jazz.
The connected bar means two guitar play there.  Again, listen for the timing.


INTRO                                 x5
----------|-----------------------------|
----------|o---------------------------o|
----------|------0--2--------2----------|
--2~------|---2--0--2--------2----------|
--2~------|o--2--x--0--------0---------o|
--0~------|---0--3-----3--3-----3qb-----|
                       .

VERSE                       x7
|-----------------------------|
|o---------------------------o|
|------0--2--------2----------|
|---2--0--2--------2----------|
|o--2--x--0--------0---------o|
|---0--3-----3--3-----3qb-----|
             .

|-----------------------------|
|-----------------------------|
|------0--2~------------------|
|---2--0--2~------------------|
|---2--x--0~------------------|
|---0--3----------------------|

CHROUS                      x3
|-----------------------------|
|o---------------------------o|
|---2-------------------------|
|---2-------2-----------------|
|o--0-------2----------------o|
|------3qb--0-----------------|


|-----------------------------|
|-----------------------------|
|---2-----------0---2~--------|
|---2-------2---0---2~--------|
|---0-------2---x---0~--------|
|------3qb--0---3-------------|
|                             |
|-----------------------------|
|-----------------------------|
|------------------------2fb~-|
|-----------------------------|
|-----------------------------|
|-----------------------------|


VERSE                       x9
|-----------------------------|
|o---------------------------o|
|------0--2--------2----------|
|---2--0--2--------2----------|
|o--2--x--0--------0---------o|
|---0--3-----3--3-----3qb-----|
             .

|-----------------------------|
|-----------------------------|
|------0--2~------------------|
|---2--0--2~------------------|
|---2--x--0~------------------|
|---0--3----------------------|


CHORUS                      x3
|-----------------------------|
|o---------------------------o|
|---2-------------------------|
|---2-------2-----------------|
|o--0-------2----------------o|
|------3qb--0-----------------|


|-----------------------------|
|-----------------------------|
|---2-----------0---2~--------|
|---2-------2---0---2~--------|
|---0-------2---x---0~--------|
|------3qb--0---3-------------|
|                             |
|-----------------------------|
|-----------------------------|
|------------------------2fb~-|
|-----------------------------|
|-----------------------------|
|-----------------------------|


SOLO
|-----3-2-0--------------------------|
|-----------3-2-0--------------------|
|-4~------------2-2p0-----0----------|
|---------------------3p0------------|
|------------------------------------|
|---------------------------19\0-----|

|----------12------------------------|
|-15b17~------15-12----12------------|
|-------------------14----14-14p12---|
|---------------------------------14-|
|------------------------------------|
|------------------------------------|

|---------------12-------------12----|
|------------12-----15p12---------12-|
|-12-----14b--------------14h16------|
|-----14-----------------------------|
|------------------------------------|
|------------------------------------|
[ Tab from: http://www.guitartabs.cc/tabs/a/ac_dc/tnt_tab_ver_11.html ]
|--------------------------17b19r17--|
|--17--------------------------------|
|------------------------------------|
|------14-12-14~-14\-----------------|
|------------------------------------|
|-----------------------0------------|


CHORUS                      x7
|-----------------------------|
|o---------------------------o|
|---2-------------------------|
|---2-------2-----------------|
|o--0-------2----------------o|
|------3qb--0-----------------|


|-----------------------------|
|-----------------------------|
|---2-----------0---2~--------|
|---2-------2---0---2~--------|
|---0-------2---x---0~--------|
|------3qb--0---3-------------|


OUTRO
|-------------|--------------|-----------|
|-------------|--------------|-----------|
|-------------|--------------|-----------|
|-2-----------|-3------------|-4---------|
|-2-----------|-3------------|-4---------|
|-0-----------|-1------------|-2---------|
|                                        |
|-------------|--------------|-----------|
|----5--------|---6----------|---7-------|
|----7b9------|---8b10-------|---9b11----|
|-------------|--------------|-----------|
|-------------|--------------|-----------|
|-------------|--------------|-----------|


|---------------|---------------------|-----------------------|
|---------------|---------------------|-----------------------|
|---------------|---------------------|-----------------------|
|-5-------------|-6---------7---------|-8---------9-----------|
|-5-------------|-6---------7---------|-8---------9-----------|
|-3-------------|-4---------5---------|-6---------7-----------|
|                                                             |
|---------------|---------------------|-----------------------|
|-------8-------|---------------------|-----------------------|
|------10b12----|----11b13-----12b14--|----13b15-----14b16----|
|---------------|---------------------|-----------------------|
|---------------|---------------------|-----------------------|
|---------------|---------------------|-----------------------|


|------------------------------------------|
|------------------------------------------|
|------------------------------------------|
|-10-------11---------12---------13--------|
|-10-------11---------12---------13--------|
|--8--------9---------10---------11--------|
|                                          |
|------------------------------------------|
|----13-------14-----------15-------16-----|
|----15b17----16b18--------17b19----18b20--|
|------------------------------------------|
|------------------------------------------|
|------------------------------------------|


|-------------------------------------|
|-------------------------------------|
|-------------------------------------|
|--14---------15-------16-------17----|
|--14---------15-------16-------17----|
|--12---------13-------14-------15----|
|                                     |
|-------------------------------------|
|-------17-------18-------18----------|
|-------19b21----20b22----20b22-------|
|-------------------------------------|
|-------------------------------------|
|-------------------------------------|


|-------------------------------------|
|-------------------------------------|
|-------------------------------------|
|-18-------19--20--21--------21-------|
|-18-------19--20--21--------21-------|
|-16-------17--18--19--------19-------|
|                                     |
|-------------------------------------|
|--------------20--22b23---22b24------|
|----22b23----------------------------|
|-------------------------------------|
|-------------------------------------|
|-------------------------------------|


|-------------------------------------|
|-------------------------------------|
|-------------------------------------|
|--2~---------------------------------|
|--2~---------------------------------|
|--0~---------------------------------|

The end is fucking nuts, so yeah.  Other than that.  That's it.
Comments