Ac Dc - Tnt Chords & Tabs

 

Tnt Chords & Tabs

Ac Dc Chords & Tabs

Version: 1 Type: Tab 16 ratings
1 star 2 stars 3 stars 4 stars 5 stars
comments

Tnt Tab

   
#----------------------------------PLEASE NOTE---------------------------------#
#This file is the author's own work and represents their interpretation of the #
#song. You may only use this file for private study, scholarship, or research. #
#------------------------------------------------------------------------------##

Band:   AC/DC
Album:  HIGH VOLTAGE
Song:   TNT

Copyright (c)  (RECORD LABEL) (YEAR)
Version 1.0 – 03-01-03

Transcribed By: Maxi Mayerthaler
Email:          coolmau@gmx.de


.  - palm mute           /  - slide up to
\  - slide down to       ~  - vibrato
h  - hammer on           b  - Bend
p  - pull off            Suffixes for bend
t  - tap                 f  - full bend    h - half bend
ph - pinched harmonic    q  - quarter bend t - tap bend
*  - see comment         ^  - Hold bend    r release bend
x  - Stuccatto           ~  - vibrato bend
,  - slight palm mute    () - ghost note, sustained note
"  - tremolo note         - Trill

Tunning E B G D A E

VERSE

|-----|-----------------------------------|
|-----|-----------------------------------|
|-----|------------2---------2------------|
|--2--|--2---------2---------2---------2--|
|--2--|--2----5----0---------0---------2--|
|--0--|--0----3---------3---------3----0--|

CHORUS
[ Tab from: http://www.guitartabs.cc/tabs/a/ac_dc/tnt_tab.html ]
|---------------|----------|
|---------------|----------|
|--2------------|-------2--|
|--2---------2--|-------2--|
|--0---------2--|--5----0--|
|-------3----0--|--3-------|

GUITAR 1 PLAYS THE CHORUS AND GUITAR 2 PLAYS THIS BENDING

|------|
|------|
|--2b--|
|------|
|------|
|------|

SOLO

|-----3-2-0---------------------------12--------------------------|
|-----------3-2-0-----------------15b----15-12--------------------|
|--2b-------------2-0-----0--------------------14-12----14----12--|
|---------------------3-0----------------------------14----14-----|
|-----------------------------------------------------------------|
|------------------------------0----------------------------------|

|---------12----------------12---------|
|------12----15-15-12-12-12----12-15b--|
|--14b---------------------------------|
|--------------------------------------|
|--------------------------------------|
|--------------------------------------|

|--12-15-12----12-----------------------------------------------------------17b|
|-----------15----15-12----12--------------------------------------------------|
|-----------------------14----14-12----14----12b-------------------------------|
|-----------------------------------14----14--------14-12-14--14---------------|
|------------------------------------------------------------------------------|
|--------------------------------------------------------------------0---------|


Comments