Ac Dc - Thunderstruck Chords & Tabs

 

Thunderstruck Chords & Tabs

Ac Dc Chords & Tabs

Version: 7 Type: Tab 0 ratings
1 star 2 stars 3 stars 4 stars 5 stars
comments

Thunderstruck Tab

AC/DC

I hope it sounds good. tell me.. AIM: ozzman3388

/Slide    
^Pull up

Intro:
1---------|--------------------------------------------------------------------
2----0----|4-0-7-0-4-0-7-0-4-0-7-0-4-0-7-0-4-0-7-0-4-0-7-0-4-0-7-0-4-0-7-0-----
3---------|--------------------------------------------------------------------
4---------|--------------------------------------------------------------------
5---------|--------------------------------------------------------------------
6---------|--------------------------------------------------------------------

1------------------------------------------------------------------------------
2-5-0-8-0-5-0-8-0-5-0-8-0-5-0-8-0-5-0-8-0-5-0-8-0-5-0-8-0-5-0-8-0--------------
3------------------------------------------------------------------------------
4------------------------------------------------------------------------------
5------------------------------------------------------------------------------
6------------------------------------------------------------------------------

1st Riff
1--------------------------------|---------------------------------------------
2-12-10-9-0-10-0-9-0-7-0-9-0-5-0-|-7-0-4-0-5-0-4-0-5-0-4-0-5-0-4-0-------------
3--------------------------------|---------------------------------------------
4--------------------------------|---------------------------------------------
5--------------------------------|---------------------------------------------
6--------------------------------|---------------------------------------------


Fig.1
1-----------------------------------------|------------------------------------
2-----------------------------------------|------------------------------------
3--4--4-------4-----4------4-----4---4----|--4--4----4----4--4------4----------
4--4--4-------4-----4------4-----4---4----|--4--4----4----4--4------4----------
5--------2-------2------------2---------2-|-------2-----2--------2------2------
6-----------------------------------------|------------------------------------


Fig.2                      Fig.3                 Fig.4
1------------------------|  1----------------|   1----------------------|
2------------------------|  2----------------|   2----------------------|
3------------------------|  3----------------|   3-4--2-----------------|
4--4---2--------2--2-----|  4---4------------|   4-4--2---2----2--------|
5--2---0--2-----0--0--2--|  5---2------------|   5-2--0---2----2--------|
6---------0-----------0--|  6----------------|   6--------0----0--------|


Fig.5...chorus
1------------------------|
2------------------------|
3------2-----------------|
4-4-2--0-----2-----------|
5-2-0-----2--0---2-------|
6---------0------0-------|

Riff.1 
1-----------------|
2-----------------|
3--------4--2-----|
4--------4--2-----|
5--4--4--------4--|
6--2--2--------2--|

Solo
1------------------------------------------------------------------------------
2---9--9----------------------------------------7------------------------------
3---9--9--9-------------6-------9---------9^-----------------------------------
4------------9-------------7----9---9/7----------------------------------------
5----------------9--7----------------------------------------------------------
6------------------------------------------------------------------------------

Fig.6
1--------------------------------7---------------------------------------------
2----------------------------------10--7---------------------------------------
3-----------------------------------------9--7^--------------------------------
4----------4----------2--2-----------------------9--9----7--7^--7--9-----------
5--2--2----2----------0--0---2------------------------9----------------0-------
6--0--0---------0--2---------0-------------------------------------------------
[ Tab from: http://www.guitartabs.cc/tabs/a/ac_dc/thunderstruck_tab_ver_7.html ]
1------------------------------------------------------------------------------
2------------------------7-----------------------------------------------------
3---9-----7--9-10-9-7-------9-----7--7^-----9---7^-----------------------------
4------9----------9------------9---------9--------9---9------------------------
5------------------------------------------------------------------------------
6------------------------------------------------------------------------------

1--17--17--14------------------------14--17--14-----14-------------------------
2--------------17^---17--15---17^---------------17-----17^-(17)-15--15^15^15^--
3-----------------------------------------------------------------16-----------
4------------------------------------------------------------------------------
5------------------------------------------------------------------------------
6------------------------------------------------------------------------------

Riff.
1------------------------------------------------------------------------------
2------------------------------------------------------7------7--9--7--9^--9-7-
3------------7------7--9--7-9^--9--7-------------------7------7--9--7--9^--9-7-
4-4--2----9-----9----------------------9---4---2---9-------9-------------------
5-2--0-------------------------------------2---0-------------------------------
6------------------------------------------------------------------------------

Chorus
1---------------------------------------10--12--10---------10^--10--7-9^-9-7---
2-----------------------------------12---------------12---12-------------------
3------------------------------------------------------------------------------
4-4------------4---------------------------------------------------------------
5-2-------2----2--------2---2---2----------------------------------------------
6----2-4--0--------2-4--0---0---0----------------------------------------------

1----14^-----14--13--12-------12---------12^---10---12^-(12)--12^-12--12--12---
2------------------------15--------15------------------------------------------
3------------------------------------------------------------------------------
4------------------------------------------------------------------------------
5------------------------------------------------------------------------------
6------------------------------------------------------------------------------

1-12-12-12-12-12-12-12-12--10^-10------10^--12-12^-10----12-10-12-10-(10)-12^-
2----------------------------------12-----------------12-----------------------
3------------------------------------------------------------------------------
4------------------------------------------------------------------------------
5------------------------------------------------------------------------------
6------------------------------------------------------------------------------

1-12^-10-12^-12^--17-`4-17^-17^-17-14-17^--17-14--17^ 22^--22-22-19------------
2-------------------------------------------------------------------22-19------
3-------------------------------------------------------------------------21^--
4------------------------------------------------------------------------------
5------------------------------------------------------------------------------
6------------------------------------------------------------------------------

1------------------------------------------------------------------------------
2------------------------------------------------------------------------------
3--21-19----21----19-21^-21^---------------------------------------------------
4--------21----21-----------21---4---4---4-------------------------------------
5--------------------------------2---2---2-------------------------------------
6------------------------------------------------------------------------------
Comments