Ac Dc - Thunderstruck Chords & Tabs

 

Thunderstruck Chords & Tabs

Ac Dc Chords & Tabs

Version: 4 Type: Bass Tab 0 ratings
1 star 2 stars 3 stars 4 stars 5 stars
comments

Thunderstruck Bass Tab

Thunderstruck by AC/DC
Standard Tuning

(From 0.37-2.28)
G:----------|----------|----------|----------|
D:----------|----------|----------|----------|
A:2--2--2--2|2--2--2--2|2--2--2--2|2--2--2--2|
E:----------|----------|----------|----------|

G:----------|----------|----------|----------|
D:----------|----------|----------|----------|
A:2--2--2--2|2----0----|----------|0--2--0---|
E:----------|---------2|----------|---------0|

G:----------|----------|----------|----------|
D:----------|----------|----------|----------|
A:0--2--0---|----------|0--2--0---|----------|
E:---------0|----------|---------0|----------|

(Chorus)
G:----------|----------|----------|----------|
D:------0---|----------|------0---|----------|  x2
A:2--0------|0---------|2--0------|0---------|
E:---------5|---0------|---------5|---0------|

G:----------|----------|----------|----------|
D:----------|----------|----------|----------|
A:2--2--2--2|2--2--2--2|2--2--2--2|2--2--2--2|
E:----------|----------|----------|----------|
[ Tab from: http://www.guitartabs.cc/tabs/a/ac_dc/thunderstruck_btab_ver_4.html ]
(During Solo)
G:----------|----------|----------|----------|
D:----------|----------|----------|----------|  x2
A:---2-----0|0---------|---2-----0|0---------|
E:0-----0-2-|---0------|0-----0-2-|---0------|

G:----------|----------|----------|----------|
D:----------|----------|----------|----------|
A:2--2--2--2|2--2--2--2|2--2--2--2|2--2--2--2|
E:----------|----------|----------|----------|

G:----------|----------|----------|----------|
D:------0---|----------|------0---|----------|  x3
A:2--0------|0---------|2--0------|0---------|
E:---------5|---0------|---------5|---0------|

G:----------|----------|----------|----------|
D:----------|----------|----------|----------|
A:2------0--|2------0--|2------0--|2------0--|
E:-----2---0|-----2---0|-----2---0|-----2---0|

G:----------|----------|----------|----------|
D:------0---|----------|------0---|----------|  x8
A:2--0------|0---------|2--0------|0---------|
E:---------5|---0------|---------5|---0------|

G:----------|----------|----------|----------|
D:----------|----------|----------|----------|
A:2---------|----------|2---------|----------|
E:----------|----------|----------|----------|

Thanks, please rate it after you learn it.
Tabbed by:
_TheBassist01_
Comments