Ac Dc - Theres Gonna Be Some Rockin Chords & Tabs

 

Theres Gonna Be Some Rockin Chords & Tabs

Ac Dc Chords & Tabs

Version: 1 Type: Tab 0 ratings
1 star 2 stars 3 stars 4 stars 5 stars
comments

Theres Gonna Be Some Rockin Tab

Theres gonna be some rockin by AC/DC
Standard Tuning

(Intro)
E|------------------------|-----------------------|-----------------------|
B|--3--3--3----3----3--3--|----3--3----3----3--3--|----3--3----3----3--3--|
G|--2--2--4----2----4--2--|----2--4----2----4--2--|----2--4----2----4--2--|
D|--0--0--0----0----0--0--|----0--0----0----0--0--|----0--0----0----0--0--|
A|--5--5--5----5----5--5--|----5--5----5----5--5--|----5--5----5----5--5--|
E|------------------------|-----------------------|-----------------------|

E|------------------------|-----------------------|-----------------------|
B|------------------------|-----------------------|-----------------------|
G|--------7----7----------|----7--7----7----------|----7--7----7----------|
D|--------7----7----3--4--|----7--7----7----3--4--|----7--7----7----3--4--|
A|--5--5------------------|-----------------------|-----------------------|
E|------------------------|-----------------------|-----------------------|

(Verse)
|-----------------------|-----------------------|-----------------------|
|----3--3----3----3--3--|----3--3----3----3--3--|----3--3----3----3--3--|
|----2--4----2----4--2--|----2--4----2----4--2--|----2--4----2----4--2--|
|----0--0----0----0--0--|----0--0----0----0--0--|----0--0----0----0--0--|
|----5--5----5----5--5--|----5--5----5----5--5--|----5--5----5----5--5--|
|-----------------------|-----------------------|-----------------------|

|-----------------------|-----------------------|-----------------------|
|-----------------------|-----------------------|-----------------------|
|----7--7----7----------|----7--7----7----------|----7--7----7----------|
|----7--7----7----3--4--|----7--7----7----3--4--|----7--7----7----3--4--|
|-----------------------|-----------------------|-----------------------|
|-----------------------|-----------------------|-----------------------|

|-----------------------|----------------------|------------------------|
|----3--3----3----3--3--|----3--3----3----3--3-|------------------------|
|----2--4----2----4--2--|----2--4----2----4--2-|------------------------|
|----0--0----0----0--0--|----0--0----0----0--0-|--5--5--5----5----5--5--|
|----5--5----5----5--5--|----5--5----5----5--5-|--5--5--7----5----7--5--|
|-----------------------|----------------------|--3--3--3----3----3--3--|

|-----------------------|----------------------|------------------------|
|-----------------------|----------------------|------------------------|
|----7--7----7----------|----7--7----7---------|------------------------|
|----7--7----7----3--4--|----7--7----7---------|-----5--5----5----------|
|-----------------------|-----------------1--2-|-----5--5----5----1--2--|
|-----------------------|----------------------|-----3--3----3----------|

|-----------------------|----------------------|------------------------|
|-----------------------|--3--3--3----3----3--3|----3--3----3----3--3---|
|-----------------------|--2--2--4----2----4--2|----2--4----2----4--2---|
|----5--5----5----5--5--|--0--0--0----0----0--0|----0--0----0----0--0---|
|----5--7----5----7--5--|--5--5--5----5----5--5|----5--5----5----5--5---|
|----3--3----3----3--3--|----------------------|------------------------|

|-----------------------|----------------------|------------------------|
|-----------------------|----------------------|------------------------|
|-----------------------|-----7--7----7--------|----7--7----7-----------|
|----5--5----5----3--4--|-----7--7----7----3--4|----7--7----7----3--4---|
|----5--5----5----------|----------------------|------------------------|
|----3--3----3----------|----------------------|------------------------|

|-----------------------|----------------------|------------------------|
|-----------------------|----------------------|--3--3--3----3----3--3--|
|--2--2--2----2----2----|----------------------|--2--2--4----2----4--2--|
|--2--2--4----2----4--5-|----5--5----5----5--5-|--0--0--0----0----0--0--|
|--0--0--0----0----0--5-|----5--7----5----7--5-|--5--5--5----5----5--5--|
|---------------------3-|----3--3----3----3--3-|------------------------|
[ Tab from: http://www.guitartabs.cc/tabs/a/ac_dc/theres_gonna_be_some_rockin_tab.html ]
|-----------------------|----------------------|------------------------|
|-----------------------|----------------------|------------------------|
|-----2--2----2---------|----------------------|-----7--7----7----------|
|-----2--2----2---------|----5--5----5----3--4-|-----7--7----7----3--4--|
|-----0--0----0----3--4-|----5--5----5---------|------------------------|
|-----------------------|----3--3----3---------|------------------------|

|-----------------------|----------------------|------------------------|
|----3--3----3----3-----|--3-------------------|--3---------------------|
|----2--4----2----4-----|--2-------------------|--2---------------------|
|----0--0----0----0-----|--0-------------------|--0---------------------|
|----5--5----5----5-----|----------------------|------------------------|
|-----------------------|----------------------|------------------------|

|-----------------------|----------------------|------------------------|
|-----------------------|--3-------------------|--3---------------------|
|----7--7----7----------|--2-------------------|--2---------------------|
|----7--7----7----3--4--|--0-------------------|--0---------------------|
|-----------------------|----------------------|------------------------|
|-----------------------|----------------------|------------------------|

|-----------------------|----------------------|------------------------|
|--3--------------------|--3-------------------|------------------------|
|--2--------------------|--2-------------------|------------------------|
|--0--------------------|--0-------------------|--5--5--5----5----5--5--|
|-----------------------|-------2----3----4----|--5--5--7----5----7--5--|
|-----------------------|-------0----1----2----|--3--3--3----3----3--3--|

|-----------------------|----------------------|------------------------|
|--3--------------------|--3-------------------|------------------------|
|--2--------------------|--2-------------------|------------------------|
|--0--------------------|--0-------------------|-----5--5----5----------|
|-----------------------|-------2----3----4----|-----5--5----5----1--2--|
|-----------------------|-------0----1----2----|-----3--3----3----------|
                        
|-----------------------|------------------------|-----------------------|
|-----------------------|--3--3--3----3----3--3--|----3--3----3----3--3--|
|-----------------------|--2--2--4----2----4--2--|----2--4----2----4--2--|
|----5--5----5----5--5--|--0--0--0----0----0--0--|----0--0----0----0--0--|
|----5--7----5----7--5--|--5--5--5----5----5--5--|----5--5----5----5--5--|
|----3--3----3----3--3--|------------------------|-----------------------|

|-----------------------|------------------------|-----------------------|
|-----------------------|------------------------|-----------------------|
|-----------------------|-----7--7----7----------|----7--7----7----------|
|----5--5----5----3--4--|-----7--7----7----3--4--|----7--7----7----3--4--|
|----5--5----5----------|------------------------|-----------------------|
|----3--3----3----------|------------------------|-----------------------|

|-----------------------|-----------------------|------------------------|
|-----------------------|-----------------------|--3--3--3----3----3--3--|
|--2--2--2----2----2----|-----------------------|--2--2--4----2----4--2--|
|--2--2--4----2----4--5-|----5--5----5----5--5--|--0--0--0----0----0--0--|
|--0--0--0----0----0--5-|----5--7----5----7--5--|--5--5--5----5----5--5--|
|---------------------3-|----3--3----3----3--3--|------------------------|

|-----------------------|-----------------------|------------------------|
|-----------------------|-----------------------|------------------------|
|-----2--2----2---------|-----------------------|-----7--7----7----------|
|-----2--2----2---------|----5--5----5----3--4--|-----7--7----7----3--4--|
|-----0--0----0----3--4-|----5--5----5----------|------------------------|
|-----------------------|----3--3----3----------|------------------------|

                         go on with verse
|-----------------------|
|----3--3----3----3-----|
|----2--4----2----4-----|
|----0--0----0----0-----|
|----5--5----5----5-----|
|-----------------------|
                       
|-----------------------|
|-----------------------|
|----7--7----7----------|
|----7--7----7----3--4--|
|-----------------------|
|-----------------------|
Comments