Ac Dc - The Razors Edge Chords & Tabs

 

The Razors Edge Chords & Tabs

Ac Dc Chords & Tabs

Version: 1 Type: Bass Tab 0 ratings
1 star 2 stars 3 stars 4 stars 5 stars
comments

The Razors Edge Bass Tab

   
The razors edge - 1990 AC/DC
Standard tuning
E,A,D,G
I didnt TAB the prtecise amount of notes for the intro but if you listen to the song you 
be able to figure it out for yourself.

INTRO
G------------------------------------------------------------------------|
D------------------------------------------------------------------------|
A------------------------------------------------------------------------|
E--0----0----0--0-0-0-0-0-0-0-0-0-0-0-0-0-0-0-0-0-0-0-0-0-0-0-0-0-0-0-etc|

CHORUS

G---------------------------------------------------------|
D---------------------------------------------------------|
A-1-1-1-1-1-2-2-2-2-2-----------1-1-1-1-1-1-3-3-3-3-3-3---|
E---------------------3-3-3-3-3---------------------------|
  'here comes the razors edge

VERSE
G-------------------------------------|
D-------------------------------------|
A-------------------------------------|
E-0-0-0-0-0-0-0-0-0-0-0-0-0-0-0-0etc.-|

CHORUS
G----------------------------------------------------------|
D----------------------------------------------------------|
A-1-1-1-1-1-2-2-2-2-2-------------1-1-1-1-1-1-3-3-3-3-3-3--|
E---------------------3-3-3-3-3-3--------------------------|x2
[ Tab from: http://www.guitartabs.cc/tabs/a/ac_dc/the_razors_edge_btab.html ]
G----------------|
D----------------|
A----------------|
E-0--0--0-4-3-2--|
x3

G--------------------------------------------------------------------------|
D--------------------------------------------------------------------------|
A-1-1-1-1-1-0-3-3-3-3-3-0-1-1-1-1-1-0-3-3-3-3-3----------------------------|
E-----------------------------------------------3----0----3----(drum roll)-|
 'razors edge.....'
solo
G----------------------------------------|
D----------------------------------------|
A-3-3-3-3-0-1-1-1-1-0-3-3-3-3-0-1-1-1-1--|
E----------------------------------------|

cont'D
G---------------|
D---------------|
A---------------|
E-0--0--0-4-3-2-|
x10 I think.

CHORUS
G-----------------------------------------------------|
D-----------------------------------------------------|
A-1-1-1-1-1-2-2-2-2-2-------------1-1-1-1-1-3-3-3-3-3-|
E---------------------3-3-3-3-3-3---------------------|

G-------------------------------------------------------------------------|
D-------------------------------------------------------------------------|
A-1-1-1-1-1-1-1-2-2-2-2-2-2-2-------------1-1-1-1-1-1-3-3-3-3-3-3-3-3-3-3-|
E-----------------------------3-3-3-3-3-3---------------------------------|
   'now here it comes the razors edge,the razors edge...'
G----------------|
D----------------|
A----------------|
E-0--0--0--4-3-2-|
play till the end of the song
Comments