Ac Dc - Sin City Chords & Tabs

 

Sin City Chords & Tabs

Ac Dc Chords & Tabs

Version: 2 Type: Bass Tab 0 ratings
1 star 2 stars 3 stars 4 stars 5 stars
comments

Sin City Bass Tab

     INTRO
__________________

Opening/Ending part      (00:06)  x4
G-----------------|    |-------------||-------|  
D-----------------|    |-------------||-------|
A-----2-5--0-2----|then|--------5----||-------|
E-3-5----------0--|    |--0--7-----5-||--0-3--|

		       |______________________|
			      |
			      |--> this part only on intro


!!!The ending part is played slowly!!!

[ Tab from: http://www.guitartabs.cc/tabs/a/ac_dc/sin_city_btab_ver_2.html ]
Verse 1 (00:21) x3        	 (00:32)
G---------------------------|    |---------------------|
D----2----------------------|    |---------------------|
A-------2--5----------------|then|---------2-5(x12)----|
E--00---------5--0-3-0------|    |--0-0-------------3--|
  |___|
    |
    +----> those are really close


The verse 1 is repeated trough the whole song, and the bass solo 
is just the verse without the guitar !!! There are two breaks who 
are the same at 1:11 and 3:38:


Break
G------------4-(x32)-------|
D--------------------------|
A--0-(x32)-----------------|
E--------------------------|


and a little difference of the verse at the end of bass solo, when drum enter :

Verse 2 (03:23) x3
G--------------------------|    |--------||
D----2---------------------|    |--------||
A-------2--5---------------|then|--------||
E-------------5------------|    |--0-3-0-||


That's all!
Have Phun!
Comments