Ac Dc - Shoot To Thrill Chords & Tabs

 

Shoot To Thrill Chords & Tabs

Ac Dc Chords & Tabs

Version: 3 Type: Tab 0 ratings
1 star 2 stars 3 stars 4 stars 5 stars
comments

Shoot To Thrill Tab

#----------------------------------PLEASE NOTE-------------------------------
#This file is the author's own work and represents their interpretation of the song. You 
only use this file for private study, scholarship, or research.
#----------------------------------------------------------------------------
#-- File created with Instab - http://www.pconline.com/~smcarey/instab.html -
#----------------------------------------------------------------------------

Author/Artist: AC/DC
Title: Shoot To Thrill
Album: Back In Black
Transcribed by: Matt
Email: DayTripper75@aol.com

Intro:							Pre Chorus:
-|---------|-3-------2-------3----|----2-----------------|------------|------|
-|---------|-3-------3-------3----|----3-----------------|------------|------|
-|-------2-|-0-------2-------0----|----2-------2---------|--5-----5-5-|-5-5--|
-|-2-2---2-|-0-------0-------0----|----0-------0-----2-2-|--5-----5-5-|-5-5--|
-|-0-3-4-0-|-x--0-0--0--0-0--x--0-|-0--0--0-0-----4--0-0-|--3-5-5-3-3-|-3-3--|
-|---------|-3---------------3----|----------------------|----3-3-----|------|


--------------------|-----------|-----------------------|-------------------|
--------------------|-----------|----8--8-----8-8-----8-|-8-----8-8-----8-8-|
-5------------------|-7-------7-|----7--7-----7-7-----7-|-7-----7-7-----7-7-|
-5-------5-5--5-5-5-|-7-------7-|----6--6-----6-6-----6-|-6-----6-6-----6-6-|
-3--5-5--3-3--3-3-3-|-5--7-7--5-|----7--7-----7-7-----7-|-7-----7-7-----7-7-|
----3-3-------------|----5-5----|-0--------0-------0----|----0-------0------|
[ Tab from: http://www.guitartabs.cc/tabs/a/ac_dc/shoot_to_thrill_tab_ver_3.html ]
Chorus:							4x
--------------3--3---33--3-|-22--2--2222--2-2--2222-|--3--2--3--2-----------|
--------------3--3---33--3-|-33--3--3333--3-3--3333-|--3--3--3--3-----------|
-2-2-2-2------0--0---00--0-|-22--2--2222--2-2--2222-|--0--2--0--2--2--------|
-2-2-2-2------0--0---00--0-|-00--0--0000--0-0--0000-|--0--0--0--0--0---2-2--|
-0-0-0-0------x--x---xx--x-|------------------------|--x--0--x--0----3-0-0--|
-----------0--3--3---33--3-|------------------------|--3-----3--------------|

Vibrato....        Solo:
------------------|-----15-----15---------------------------15-----15-----15-|
-8-7-8-7-7--------|-15b----15b----15b----15b15-13----13-15b----15b----15b----|
-7-7-7-7-7-5------|-------------------------------14-------------------------|
-------------7-7v-|----------------------------------------------------------|
------------------|----------------------------------------------------------|
------------------|----------------------------------------------------------|


------15-15b\------17-----17-----17--17--17--17--|------------------|--------|
-15b--15-15b\--17b----17b----17b-----17b-17b-17b-|-12-12----12---12-|--------|
-------------------------------------------------|-12-12----12---12-|--------|
-------------------------------------------------|------------------|--------|
-------------------------------------------------|------------------|--------|
-------------------------------------------------|-------0-----0----|--------|

End: 2x	   1x     4x
--9-9-9-9-|-7777-|-10101010-|--------------------------------------------------------------------------|
-10101010-|-8888-|-10101010-|--------------------------------------------------------------------------|
--9-9-9-0-|-7777-|--7-7-7-7-|--------------------------------------------------------------------------|
----------|------|----------|--------------------------------------------------------------------------|
----------|------|----------|-----------------------------------------------------|------|----------|--|
Comments