Ac Dc - Shake A Leg Chords & Tabs

 

Shake A Leg Chords & Tabs

Ac Dc Chords & Tabs

Version: 3 Type: Tab 0 ratings
1 star 2 stars 3 stars 4 stars 5 stars
comments

Shake A Leg Tab

-----------------------------------------------------------------------------
			Shake A Leg - AC/DC
-----------------------------------------------------------------------------
Tabbed by: Sir Matthew Bostock
Email: slipknotbos@hotmail.com
Tuning: Normal E.... My friends


1st Intro

e|--------------------------------------------------------------------------|
B|--------------------------------------------------------------------------|
G|--------------------------------------------------------------------------|
D|-----2---------2-------2---2----------------------------------------------|
A|-2---0-2---2---0-2--2--0-2-0-2---2----------------------------------------|
E|-0-----0---0-----0--0----0---0---0----------------------------------------|

2nd Intro

e|--------------------------------------------------------------------------|
B|--------------------------------------------------------------------------|
G|--------------------------------------------------------------------------|
D|--------------------------------------------------------------------------|
A|-2----2-------2-2-----4-4-2-5-5-4-----------------------------------------|
E|-0-3^-0---3/5-----3/5-----------------------------------------------------|

Verse x2

e|--------------------------------------------------------------------------|
B|--------------------------------------------------------------------------|
G|--------------------------------------------------------------------------|
D|--------------------------------------------------------------------------|
A|-2--2-2-2-2-2-2-2-2--2----2------2-2-----4-4-2-5-5-4----------------------|
E|-0--0-0-0-0-0-0-0-0--0-3^-0--3/5-----3/5----------------------------------|

Change In verse x1

e|--------------------------------------------------------------------------|
B|--------------------------------------------------------------------------|
G|--------------------------------------------------------------------------|
D|-2--2-2-2-2-2-2-2-2--2----2------2-2-----4-4-2-5-5-4----------------------|
A|-0--0-0-0-0-0-0-0-0--0-3^-0--3/5-----3/5----------------------------------|
E|--------------------------------------------------------------------------|

Then Back Into The Normal Verse x1...... Then.........

Chorus x 3

e|--------------------------------------------------------------------------|
B|--------------------------------------------------------------------------|
G|--------------------------------------------------------------------------|
D|-9-9---9------------------------------------------------------------------|
A|-7-7-9-7-9----------------------------------------------------------------|
E|-----7---7---------------------------------------------------------------|

End Of Chorus x1

e|--------------------------------------------------------------------------|
B|--------------------------------------------------------------------------|
G|--------------------------------------------------------------------------|
D|-9-9---9---9-9---9---9----------------------------------------------------|
A|-7-7-9-7-9-7-7-9-7-9-7----------------------------------------------------|
E|-----7---7-----7---7------------------------------------------------------|

Bit Before Solo x2

e|--------------------------------------------------------------------------|
B|--------------------------------------------------------------------------|
G|--------------------------------------------------------------------------|
D|--------------------------------------------------------------------------|
A|--x~~~~~--2-----2-2----2-2----2-2----2-2----2-----------------------------|
E|--x~~~~~--0--3^-0-0-3^-0-0-3^-0-0-3^-0-0-3^-0-----------------------------|

Solo
[ Tab from: http://www.guitartabs.cc/tabs/a/ac_dc/shake_a_leg_tab_ver_3.html ]
e|--------------------------------------------------------------------------|
B|-17-17-----17-17----17-17-------------------------------------------------|
G|-17-17-----17-17----17-17-------------------------------------------------|
D|-------19--------19-------19--17^-17^-------------------------------------|
A|------------------------------17^-17^-------------------------------------|
E|--------------------------------------------------------------------------|

e|--------------------------------------------------------------------------|
B|-17-17----------17-17-----------17-17-----------20^-20^-------------------|
G|-17-17----------17-17-----------17-17-----------19^-19^-------------------|
D|-------19-17-19-------19-17-19--------19-17-19----------------------------|
A|--------------------------------------------------------------------------|
E|--------------------------------------------------------------------------|

e|-----17--------17---------17----------------------------------------------|
B|-20^----20-20^----20-20^-----20-17----------------------------------------|
G|-----------------------------------20\19----19-17-------------------------|
D|-----------------------------------------19-------------------------------|
A|--------------------------------------------------------------------------|
E|--------------------------------------------------------------------------|

e|--------------------17h20p17----17h20p17-----17h20p17-----17h20p17--------|
B|-17/19-17--17/19-17----------20----------20-----------20-----------20-----|
G|-17/19-17--17/19-17-------------------------------------------------------|
D|--------------------------------------------------------------------------|
A|--------------------------------------------------------------------------|
E|--------------------------------------------------------------------------|

e|-17h20p17----17---------------17------------------------------------------|
B|----------20----20-17-17--20^----20-17----20-17---------------------------|
G|---------------------------------------20-20-17-20-17/20\17----17---------|
D|------------------------------------------------------------20----20------|
A|--------------------------------------------------------------------------|
E|--------------------------------------------------------------------------|

e|--------------------------------------------------------------------------|
B|--------------------------------------------------------------------------|
G|--------------------------------------------------------------------------|
D|-------17----20-17----------17--------------------------------------------|
A|-17h20----17-------20-17-20----20-17\15-----------------------------------|
E|----------------------------------------17--------------------------------|

e|--------------------------------------------------------------------------|
B|--------------------------------------------------------------------------|
G|---16-{16-16-16-16-16-16-16-16-16-16-16-16-16^}---------------------------|
D|--------------------------------------------------------------------------|
A|--------------------------------------------------------------------------|
E|--------------------------------------------------------------------------|

e|--------------------------------------------------------------------------|
B|-12p7h10-12p7h10-12p7h10-12p7h10-13p7h10-13p7h10-13p7h10-13p7h10-14p7h10--|
G|--------------------------------------------------------------------------|
D|--------------------------------------------------------------------------|
A|--------------------------------------------------------------------------|
E|--------------------------------------------------------------------------|

e|--------------------------------------------------------------------------|
B|-14p7h10-14p7h10-14p7h10-15p7h10-15p7h10-15p7h10-15p7h10------------------|
G|--------------------------------------------------------------------------|
D|--------------------------------------------------------------------------|
A|--------------------------------------------------------------------------|
E|--------------------------------------------------------------------------|

Done.... Bloody Took Me Ages So Plz Rate It!!! Ta... Bostock XxXxXxXxXxXxX
Comments