Ac Dc - Shake A Leg Chords & Tabs

 

Shake A Leg Chords & Tabs

Ac Dc Chords & Tabs

Version: 1 Type: Tab 3 ratings
1 star 2 stars 3 stars 4 stars 5 stars
comments

Shake A Leg Tab

Ok this is an awesome song and i already knew how to play it but i 
looked for the tab and it wasnt there so i decided to tab it out. 
It is 100% right so anywayz, here it is!

---------------------------------------------------------------------
---------------------------------------------------------------------
---   2------2-----2-----2----------------------------------------------
-2-  2-2-2--2-2-2-2-2-2-2----------------------------------------------
-2-  0-2-2--0-2-2-0-2-2-0----------------------------------------------
-0---   0-0----0-0---0-0------------------------------------------------

the timing on this is not like this, just listen to the song to be sure.
it does this a lot at the beginning.
[ Tab from: http://www.guitartabs.cc/tabs/a/ac_dc/shake_a_leg_tab.html ]
--------------------------------------------------------------------
--------------------------------------------------------------------
--------------------------------------------------------------------
-2-2---2-----2 2----2-----------------------0-0----------------------
-2-2-3-2----2-2-3-2------------2-2-0-4-4-2--------------------------
-0-0-3-0----0-0-3-0----0-3-0-4--------------------------------------
                                  (                                )
                      this part is repeated throughout the song

--------------------------------------------------------------------
--------------------------------------------------------------------
--------------------------0-0--------------------------------------
-----------2-2-0-4-4-2-------------------------------------------
-0-3-0-4----------------------------------------------------------
--------------------------------------------------------------------
 this is only done every now and then, just listen
for it

--5--5--4---5-4----5--4----5--5--4--5--4----------------------
--5--5--4---5-4----5--4----5--5--4--5--4----------------------
--4--4--4---4-4----4--4----4--4--4--4--4----------------------
--4--4--4---4-4----4--4----4--4--4--4--4----------------------
--2--2--2---2-2----2--2----2--2--2--2--2----------------------
--------------------------------------------------------------------
this comes after the last part i showed you, like i 
keep saying, listen to the song and you will figure it
out if you are any kind of guitarist at all.
but that is about it...if you have something to add or
have any questions, IM me at geetar 69420 my 
name is Derek...i am outta here!
Comments