Ac Dc - Ruff Stuff Chords & Tabs

 

Ruff Stuff Chords & Tabs

Ac Dc Chords & Tabs

Version: 3 Type: Tab 0 ratings
1 star 2 stars 3 stars 4 stars 5 stars
comments

Ruff Stuff Tab

   
Band: AC/DC
Song: Ruff Stuff
Album: Blow Up Your Video
Year: 1988
Writer(s): Angus & Malcolm Young
Tabber: AC/DC freak




here, i believe this is completely correct. rate it please.


 Riff 1			     End
  			      G# C#  
e:--------------------------|-------|
B:--------------------------|-------|
G:--------------------------|----6--|
D:--------------5--6--------|-6--6--|
A:---3-4-3------3--4----3-4-|-6--4--|
E:-4-------6-4--------4-----|-4-----|

Fig 1		   Fig 2
 G# C# G# C# G#C#   Eb   C#   F#
------------------|----|---------|
------------------|----|---------|
----6-----6----6--|-8--|-6-------|
-6--6--6--6--6-6--|-8--|-6----4--|
-6--4--6--4--6-4--|-6--|-4----4--|
-4-----4-----4----|----|------2--|

[ Tab from: http://www.guitartabs.cc/tabs/a/ac_dc/ruff_stuff_tab_ver_3.html ]
 Riff 2
   G# C#                   G# C#                 G# C# F# 
e:---------------------|---------------------|----------|
B:---------------------|---------------------|----------|
G:----6----------------|----6----------------|----6-----|
D:-6--6----------------|-6--6----------------|-6--6--4--|
A:-6--4----3-4-3-------|-6--4----3-4-3-------|-6--4--4--|
E:-4-----4-------6-2-4-|-4-----4-------6-4-2-|-4-----2--|
  P1-------------------| P2------------------| P3-------|

				     3x
  Fig 3        Fig 4     	    /  \
   G#           G#  C#  Eb  C#  G#  C C#
e:------------|---------------------------|
B:------------|--I have no idea-----------|
G:------------|---------------------------|
D:-6----6--6--|---------------------------|
A:-6----6--6--|---------------------------|
E:-4----4--4--|---------------------------|


 Fig 5
   C  C# C  C# C C#         C#	      G#
e:------------------|---------|---------|-----|
B:------------------|---------|---------|-----|
G:-5--6--5--6--5-6--|-----4-6-|-----4---|-----|
D:-5--6--5--6--5-6--|-5-6---6-|-5-6---6-|-6---|
A:-3--4--3--4--3-4--|-------4-|-------6-|-6---|
E:------------------|---------|-------4-|-4---|

Riff like this:
Intro:
Riff 1 4x, End

Verse:
Fig 1 6x
Riff 1 4x

Pre-Chorus:
Fig 2

Chorus:
Riff 2 (P1, P2, P1, P3)

Verse:
Fig 1 6x
Riff 1 4x

Pre-Chorus:
Fig 2

Chorus:
Riff 2 (P1, P2, P1, P3)

Pre-solo:
Fig 3 3x

Solo:
Fig 4

Chorus:
Riff 1 4x, End
1:st part of Riff 2
Riff 2  (A B A B)
Fig 1 3x

End of song:
Fig 5
Comments