Ac Dc - Rock N Roll Singer Chords & Tabs

 

Rock N Roll Singer Chords & Tabs

Ac Dc Chords & Tabs

Version: 3 Type: Tab 0 ratings
1 star 2 stars 3 stars 4 stars 5 stars
comments

Rock N Roll Singer Tab

Artist-ac/dc
Album-High Voltage 1976
guitarist-angus and malcome young
tabbed by-smellslikefeet1

heres the intro
|---------------------|----------------|----------|
|---------------------|----------------|----------|
|----------------1-1--|----------------|--7--9----|
|--9-9--9-7-9-7--2-2--|x2--9-7-9-9-----|--7--9----|
|--9-9--9-7-9-7--2-2--|----9-7-9-9-x6--|--5--7----|
|--7-7--7-5-7-5--0-0--|----7-5-7-7-----|----------|
  

 verse + verse2
|------------|----------|
|------------|----------|
|------------|--7--9----|
|--9-7-9-9---|--7--9----|
|--9-7-9-9-x3|--5--7----|
|--7-5-7-7---|----------|
[ Tab from: http://www.guitartabs.cc/tabs/a/ac_dc/rock_n_roll_singer_tab_ver_3.html ]
bridge to chours
  1st part     2nd part
|------------|-------------|
|------------|-------------|
|------------|-1-----1-----|
|--9-7-9-9---|-2--9--2-----|
|--9-7-9-9-x3|-2--9--2-----|
|--7-5-7-7---|-0--7--0-----|

Chorus +chorus2

|--------------|------------------------|
|--------------|------------------------|
|--------------|------------------------|
|-9--7--2--9---|--9--7--2-2-2-2-2-2-2-2-|
|-9--7--2--9-x3|--9--7--2-2-2-2-2-2-2-2-|
|-7--5--0--7---|--7--5--0-0-0-0-0-0-0-0-|

play intro one 
then play the verse cords again

after solo end on this cord
|---|
|---|
|---|
|-2-|
|-2-|
|-0-|

|---|
|---|
|---|
|-9-| play as many times as needed in the vocal solo
|-9-|   then play 2nd part of brigde once
|-7-|

Line up 
Intro
verse
bridge 
chorus
verse
brdge chorus
solo
vocal solo
chorus x2
Comments