Ac Dc - Rising Power Chords & Tabs

 

Rising Power Chords & Tabs

Ac Dc Chords & Tabs

Version: 2 Type: Tab 0 ratings
1 star 2 stars 3 stars 4 stars 5 stars
comments

Rising Power Tab

   
AC/DC
Rising Power
Album:Flick Of The Switch(1983)
Written by Angus & Malcolm Young's and Brian Johnson
Tab by Voytazz

Intro & Verse
    D      D       A9A9 G
E-----------------------------|
B-----------------------------|
G------4------4-4--2-2-----4--|   Repeat Riff 
D------4------4-4--2-2--5--4--|     x8
A--5p0-2--5p0-2-2--0-0--5--2--|
E-----------------------3-----|
(instead the 5p0 you can play D chord 
 without finger on 2 fret on 1st string)
[ Tab from: http://www.guitartabs.cc/tabs/a/ac_dc/rising_power_tab_ver_2.html ]
Bridge  
               
E-----------------------------------------------------|
B-----------------------------------------------------|
G-4-4-2-4---------------------------------------------|    
D-4-4-2-4--4-4-2-4---------4--------------------------|x1     
A-2-2-0-2--4-4-2-4---------4repeat chord about 5 times|
E----------2-2-0-2---------2--------------------------|


Chorus
          G                 G
E-----------------|--------------------------|
B-----3-----------|-----3-------3------------|
G-4-2-2-4---2-----|-4-2-2-4---2-2------------|    
D-4-2-0-4-5-2-2---|-4-2-0-4-5-2-0------------| x2    
A-2-0---2-5-0-2---|-2-0---2-5-0--------------|
E---------3---0---|---------3----------------|
 "Rising Power...  Rising Power ..." 



Then play:
Verse x4
Bridge x1
Chorus x2
Solo( he he)
Bridge x1
Then repeat chorus a few times
Then you must cut the 3 last chords of each 
part of chorus and improvise... good luck!   
easy song...
Tab by Voytazz
Check for his tabs.
AC/DC ROCKS!!!!!!!!!
Comments