Ac Dc - Problem Child Chords & Tabs

 

Problem Child Chords & Tabs

Ac Dc Chords & Tabs

Version: 3 Type: Tab 0 ratings
1 star 2 stars 3 stars 4 stars 5 stars
comments

Problem Child Tab

   
Riff A
|-------------------------|
|-------------------------|
|-------------------------|
|-x7----x7-9--x7----x7-9--|
|-x5-7--x5-7--x5-7--x5-7--|
|----5-----------5--------|
[ Tab from: http://www.guitartabs.cc/tabs/a/ac_dc/problem_child_tab_ver_3.html ]
Riff B
|-------------------------|
|-------------------------|
|-------------------------|
|--x7-9-x7-9--x7-9--x7-9--|
|--x5-7-x5-7--x5-7--x5-7--|
|-------------------------|

Riff C
|-----------------------------|
|-----------------------------|
|-----------------------------|
|-x7----x7----x7----x7--------|
|-x5-7--x5-7--x5-7--x5-7x7x7--|
|----5-----5-----5-----5x5x5--|
Comments