Ac Dc - Overdose Chords & Tabs

 

Overdose Chords & Tabs

Ac Dc Chords & Tabs

Version: 3 Type: Tab 0 ratings
1 star 2 stars 3 stars 4 stars 5 stars
comments

Overdose Tab

   
AC/DC - OVERDOSE
(Young/Young/Scott)

Tabber: Mord_Wraith
E-mail: thundastruck@hotmail.com
Date: 9/1/2004

Tuning: tune down 1/2 step

Intro:

      B7                               B7        E
 
Eb|---------2----------------|   Eb|---------2---------0---|
Bb|-------0--------0---------|   Bb|-------0---------0-----|
Gb|-----2--------------------|   Gb|-----2---------1-------|
Db|-------------1------------|   Db|-----------------------|
Ab|---2---------2------------|   Ab|---2-------------------|
Eb|--------------------(1)---|   Eb|-------------0---------|

      B7        E

Eb|---------2---------0---0---|
Bb|-------0---------0-----0---|
Gb|-----2---------1-------1---|
Db|-----------------------2---|
Ab|---2-------------------2---|
Eb|-------------0---------0---|

Guitar I (Angus)

      B7        E

Eb|---------2---------0---|
Bb|-------0---------0-----|
Gb|-----2---------1-------| play 4 times
Db|-----------------------|
Ab|---2-------------------|
Eb|-------------0---------|

Guitar II (Malcolm)
[ Tab from: http://www.guitartabs.cc/tabs/a/ac_dc/overdose_tab_ver_3.html ]
      B5        E5

Eb|---------------------------|
Bb|---------------------------|
Gb|---4-----------------------| play 4 times
Db|---4---------2-------------|
Ab|---2---------2-------------|
Eb|-------------0-------------|

Rhythm:

Guitars I and II

      B5  D5  E

Eb|---------------|
Bb|-------3-------|
Gb|---4---2---1---|
Db|---4---0---2---|
Ab|---2-------2---|
Eb|-----------0---|

Pre-solo:

Guitars I and II

      B5                    E   D

Eb|---------------|   Eb|-------2---|
Bb|---------------|   Bb|-------3---|
Gb|---4---4-4-4---|   Gb|---1---2--o| play 3 times
Db|---4---4-4-4---|   Db|---2---0--o|
Ab|---2---2-2-2---|   Ab|---2-------|
Eb|---------------|   Eb|---0-------|

      E     D

Eb|---------2---2---2---|
Bb|---------3---3---3---|
Gb|---1-----2---2---2---|
Db|---2-----0---0---0---|
Ab|---2-----------------|
Eb|---0-----------------|

---

At the end of the song, Angus goes crazy using the B7 and the E chords from the intro
while Malcolm plays B5 and E5.  Just improvise the ending, it's more fun that way.
Comments