Ac Dc - Overdose Chords & Tabs

 

Overdose Chords & Tabs

Ac Dc Chords & Tabs

Version: 2 Type: Tab 0 ratings
1 star 2 stars 3 stars 4 stars 5 stars
comments

Overdose Tab

Auther/Artist:AC/DC
Title:Overdose
Album:Let There Be Rock
Transcribed by:Justin Harmon
Email:womenarenice@hotmail.com


Intro:
E--------2-----------0---------
B------0-----------0-----------
G----2-----------1-------------
D------------------------------
A-2----------------------------
E------------0-----------------

[ Tab from: http://www.guitartabs.cc/tabs/a/ac_dc/overdose_tab_ver_2.html ]
Verse:
E-----------------------
B-----3-----------------
G-4---2-----------------
D-4---0---2-------------
A-2-------2-------------
E---------0-------------


Chorus:
E---------------------------------------------------------
B-------------------3-------3-------3------3--3--3--------
G-4--4--4--4--------2-------2-------2------2--2--2--------
D-4--4--4--4----2---0---2---0---2---0---2--0--0--0--------
A-2--2--2--2----2-------2-------2-------2-----------------
E---------------0-------0-------0-------0-----------------
Comments