Ac Dc - Moneytalks Chords & Tabs

 

Moneytalks Chords & Tabs

Ac Dc Chords & Tabs

Version: 4 Type: Tab 0 ratings
1 star 2 stars 3 stars 4 stars 5 stars
comments

Moneytalks Tab

   
intro:                                                       (2x)
e|---------------------------------------------------------------|
b|-12-10-12-10-13--13-12-8-10-8---12-10-12-10-13--13-12-8-8/10-8-|
g|--0--0--0--0--0---0--0-0--0-0----0--0--0--0--0---0--0-0-0--0-0-|
d|---------------------------------------------------------------|
a|---------------------------------------------------------------|
e|---------------------------------------------------------------|
      (1x)
e|--------|
b|-15-----|
g|-14-----|
d|--0-----|
a|--------|
e|--------|

verse:    (12x)          (4x)           (4x) 
e|-------------|-------------|--------------|
b|-------------|-------------|--------------|
g|-------------|-------------|--------------|
d|-------------|-7-7--7-7b-7-|-5-5--5-5b-5--|
a|-5-5--5-5b-5-|-5-5--5-5b-5-|-3-3--3-3b-3--|
e|-3-3--3-3b-3-|-------------|--------------|

chorus:                                 (2x)
e|------------------------------------------|
b|------------------------------------------|
g|------------------------------------------|
d|-------5-------------------7--------------|
a|-5--5--3--3----------5--5--5--3-----------|
e|-3--3-------7-3-5-3--3--3-------7-3-3-5-3-|

verse:    (12x)          (4x)           (4x) 
e|-------------|-------------|--------------|
b|-------------|-------------|--------------|
g|-------------|-------------|--------------|
d|-------------|-7-7--7-7b-7-|-5-5--5-5b-5--|
a|-5-5--5-5b-5-|-5-5--5-5b-5-|-3-3--3-3b-3--|
e|-3-3--3-3b-3-|-------------|--------------|
[ Tab from: http://www.guitartabs.cc/tabs/a/ac_dc/moneytalks_tab_ver_4.html ]
chorus:                                 (2x)
e|------------------------------------------|
b|------------------------------------------|
g|------------------------------------------|
d|-------5-------------------7--------------|
a|-5--5--3--3----------5--5--5--3-----------|
e|-3--3-------7-3-5-3--3--3-------7-3-3-5-3-|

pre solo:(9x)
e|-----|
b|-----|
g|-----|
d|--7--|
a|--5--|
e|-----|

verse:    (12x)          (4x)           (4x) 
e|-------------|-------------|--------------|
b|-------------|-------------|--------------|
g|-------------|-------------|--------------|
d|-------------|-7-7--7-7b-7-|-5-5--5-5b-5--|
a|-5-5--5-5b-5-|-5-5--5-5b-5-|-3-3--3-3b-3--|
e|-3-3--3-3b-3-|-------------|--------------|

chorus:                                                      (2x)
e|---------------------------------------------------------------|
b|-12-10-12-10-13--13-12-8-10-8---12-10-12-10-13--13-12-8-8/10-8-|
g|--0--0--0--0--0---0--0-0--0-0----0--0--0--0--0---0--0-0-0--0-0-|
d|---------------------------------------------------------------|
a|---------------------------------------------------------------|
e|---------------------------------------------------------------|

chorus:                                 (4x)
e|------------------------------------------|
b|------------------------------------------|
g|------------------------------------------|
d|-------5-------------------7--------------|
a|-5--5--3--3----------5--5--5--3-----------|
e|-3--3-------7-3-5-3--3--3-------7-3-3-5-3-|

outro:      (4x) (1x)
e|--------------|---|
b|--------------|---|
g|--------------|---|
d|--------------|---|
a|-5-5--5-5b-5--|-5-|
e|-3-3--3-3b-3--|-3-|



p=pull off
v=vibrato
h=hammer on
b=bend
/=slide 
x=pick srape


crée par:Maxime Hetu
Comments