Ac Dc - Moneytalks Chords & Tabs

 

Moneytalks Chords & Tabs

Ac Dc Chords & Tabs

Version: 2 Type: Bass Tab 0 ratings
1 star 2 stars 3 stars 4 stars 5 stars
comments

Moneytalks Bass Tab

   
------------------------------------------------------------------------------
			     Moneytalks - AC/DC
-------------------------------------------------------------------------------

Tabbed By : Alander 
e-mail: 

Tuning: Drop D
You'll need to listen to the recording to get the repitions a timing right.  Yay! First tab

  Intro play this during the whole guitar intro in till they hit
G|---------------------------------------------------------------------------|
D|---------------------------------------------------------------------------|
A|---------------------------------------------------------------------------|
D|-----5-5-5-5------5-5-5-5--------------------------------------------------|

G|---------------------------------------------------------------------------|
D|---------------------------------------------------------------------------|
A|---------------------------------------------------------------------------|
D|------5-5-5-5------5-5-5-5-----------0-------------------------------------|
   Verse and guitar solo G
G|---------------------------------------------------------------------------|
D|---------------------------------------------------------------------------|
A|---------------------------------------------------------------------------|
D|-----55555-5555-5555-5555-5555-5555----------------------------------------|

G|---------------------------------------------------------------------------|
D|---------------------------------------------------------------------------|
A|------5555-5555-5555-5555--------------------------------------------------|
D|---------------------------------------------------------------------------|
[ Tab from: http://www.guitartabs.cc/tabs/a/ac_dc/moneytalks_btab_ver_2.html ]
G|---------------------------------------------------------------------------|
D|---------------------------------------------------------------------------|
A|---------3333-3333-3333--3333----------------------------------------------|
D|---------------------------------------------------------------------------|
    Chorus
G|---------------------------------------------------------------------------|
D|---------------------------------------------------------------------------|
A|-------------32------------------------------------------------------------|
D|-------5-5-5---77575----5-5-5-0-----3457575--------------------------------|
    Pre-solo play a few times
G|---------------------------------------------------------------------------|
D|---------------------------------------------------------------------------|
A|------5-5-5-5--------------------------------------------------------------|
D|---------------------------------------------------------------------------|

G|---------------------------------------------------------------------------|
D|---------------------------------------------------------------------------|
A|---------------------------------------------------------------------------|
D|---------------------------------------------------------------------------|

G|---------------------------------------------------------------------------|
D|---------------------------------------------------------------------------|
A|---------------------------------------------------------------------------|
D|---------------------------------------------------------------------------|


| /  slide up
| \  slide down
| h  hammer-on
| p  pull-off
| ~  vibrato
| +  harmonic
| x  Mute note
===============================================================================
Comments