Ac Dc - Meanstreak Chords & Tabs

 

Meanstreak Chords & Tabs

Ac Dc Chords & Tabs

Version: 2 Type: Tab 0 ratings
1 star 2 stars 3 stars 4 stars 5 stars
comments

Meanstreak Tab

   
SOLO

-----------------------------------------------------------------------------------------------|
----6b--6b-6b-6b-6b-6b-------------------------------------------------------------------------|
-----------------------------------------------------------------------------------------------|
--------------------------------------10-8-6------8b-r-5----5-8-8-6-8-6-8-8-8---------12-12~~--|
--------------------------<6><6>-8~~~--------8~~~--------8--------------------8----13----------|
-----------------------------------------------------------------------------------------------|

----------------------------------------------10--x-10-10-14-10-14-10-14-10-14-10-14-10-14-10--|
------------------------------------11---11b--------10-----------------------------------------|
-----12b10~~\--10-12-12-10-12-10-10------------------------------------------------------------|
--/--------------------------------------------------------------------------------------------|
-----------------------------------------------------------------------------------------------|
-----------------------------------------------------------------------------------------------|

-13-10b-\---14b~~~~-20b-r-17---17-----------------------------------------10-13-10----10-15----|
-----------------------------20---20-19-18-17--12-15-12---------------13b----------13-----15---|
--------------------------------------------------------14---------------------------------15--|
-----------------------------------------------------------12~~\-x\----------------------------|
-----------------------------------------------------------------x\----------------------------|
-----------------------------------------------------------------------------------------------|
[ Tab from: http://www.guitartabs.cc/tabs/a/ac_dc/meanstreak_tab_ver_2.html ]
--------------------------------------10-13-10----10-13----18b-15-15-17-15-------------------|
--15-15~~-14-12------------8b------13----------13-------13----------------17-15\12--12-13-12-|
----------------14-12------8b~---------------------------------------------------------------|
----------x\---------------------------------------------------------------------------------|
----------x\-------------------3\------------------------------------------------------------|
---------------------------------------------------------------------------------------------|

------------------------13-10----10--------------------------11----------------------------------|
------------------10-13-------13----10---13-10------6/\------13b-r-------16b~~~--18-18-16-18-18--|
-----------------------------------------------12-------------------x\---------------------------|
-------6-8----------------------------------------------------------x\---------------------------|
---8-8-----8~~\-----------------------------------------------------x\---------------------------|
-------------------------------------------------------------------------------------------------|

----------------------16------13~~~~\-|--------------------------------|
-16-18-18-16-18-18--16---18b----------|---------------------/6-6-6-6-8-|
--------------------------------------|---------------------/7-7-7-7-7-|
--------------------------------------|---6-7-----------6-7------------|
--------------------------------------|-8----8-6-8-6-8~~---------------|
--------------------------------------|--------------------------------|

--13b~~10----10----------------------------------------------|
----------13----13-10----------------------------------------|
----------------------12-10\6-----8--------------------------|
------------------------------8-6---6-8-6-------------x-\-3--|
------------------------------------------7~~-9~~~~~--x-\-3--|
------------------------------------------------------x-\-1--|

Notation used:
b-bend
~-vibrato
x\-pick scratch
/-slide
<8>-pinch harmonic
x-muted note
r-release
Comments