Ac Dc - Meanstreak Chords & Tabs

 

Meanstreak Chords & Tabs

Ac Dc Chords & Tabs

Version: 1 Type: Tab 0 ratings
1 star 2 stars 3 stars 4 stars 5 stars
comments

Meanstreak Tab

Tuning: Standard

e-----------------------|
B---4~6--4-4-4-4--4-6---|
G---5~5--5-5-5-5--5-5---|
D-----------------------|
A-----------------------|
E-----------------------|

e---------------------|------------------------|
B---------------------|------------------------|
G---------------------|------------------------|
D-----6-7-------------|----6-7-----------------|
A---8-----8--6-8-6-8--|--8-----8--6-5---6-5----|
E---------------------|---------------8-----8--|

|-----------|
|-----------|
|-----------|
|-----------|
|--8~~~-\---|
|-----------|
[ Tab from: http://www.guitartabs.cc/tabs/a/ac_dc/meanstreak_tab.html ]
e----------|----------------------------|
B----------|----------------------------|
G----------|--------10------8-----------|
D-----8----|--------10------8-------10--|
A-----8----|--------8-------6-------10--|
E-----6----|------------------------8---|

e----------------------------------------------|
B----------------------------------------------|
G-----------------------------8------------6---|
D-----8-------6-------3-------8------------6---|
A-----8-------6-------3-------6------------4---|
E-----6-------4-------1------------------------|

Notation used
~-vibrato
/-slide
Comments