Ac Dc - Love Hungry Man Chords & Tabs

 

Love Hungry Man Chords & Tabs

Ac Dc Chords & Tabs

Version: 1 Type: Bass Tab

Love Hungry Man Bass Tab

I think that this song has awesome bass. This took me a while to tab and it is my first tab, O.K.

Intro
|--------------|
|--------------|
|--5-----------|
|-----2--3--5--|  X

Verse 1
|------------------------------|
|------------------------------|
|--5--------5-5-3-5------------|
|-----2--3----------3-5-5-3-5--|    X2

Verse 1 Con.
|----------------------|
|----------------------|
|--5-5-3-5-------------|
|----------3-5-5-3-5---|  X4

Chorus
|------------------------------|
|------------------------------|
|--5--------5-5-3-5------------|
|-----2--3----------3-5-5-3-5--|  X2

Verse 2
|-------------|
|-------------|
|-------------|
|--3-5-5-3-5--|   X8

Chorus
|------------------------------|
|------------------------------|
|--5--------5-5-3-5------------|
|-----2--3----------3-5-5-3-5--|  X2
[ Tab from: http://www.guitartabs.cc/tabs/a/ac_dc/love_hungry_man_btab.html ]
Solo
|---------------------------------------|
|----2-3-2------------------------------|
|--3---------2-3-2----------------------|
|----------3--------5-5-3-5--3-5-5-3-5--| X4
                   |....................|(Double at end of solo)  
After Solo
|--------------|
|--------------|
|--5-----------|
|-----2--3--5--|  X2

Chorus
|------------------------------|
|------------------------------|
|--5--------5-5-3-5------------|
|-----2--3----------3-5-5-3-5--|  X8

Outro
|---------------------------------------------------------------|
|----2-3-2-----------------------------------------12-12-14-12--|
|--3---------2-3-2----------------------------------------------|
|-----------3-------5-5-3-5--3-5-5-3-5--3-5-5-3-5---------------|


I hope you enjoy this song even more than I do! It's really fun
to play! Any questions email me at Just_in_bell@yahoo.com