Ac Dc - Live Wire Chords & Tabs

 

Live Wire Chords & Tabs

Ac Dc Chords & Tabs

Version: 2 Type: Bass Tab 0 ratings
1 star 2 stars 3 stars 4 stars 5 stars
comments

Live Wire Bass Tab

   
-------------------------------------------------------------------------------
			     Live Wire - AC/DC
-------------------------------------------------------------------------------

Tabbed By : Mangablade
e-mail: goronbud23@hotmail.com

first tab.. woot. i saw the other livewire tab, i dunno about you guys but i didnt like it.

Standard E

Intro/verses (80% of song)

G|-------------------------------------------------------------------------------------|
D|-------------------------------------------------------------------------------------|
A|-2-2-2-2-2-2-2-2---------------------------------------------------------------------|
E|-------------------------------------------------------------------------------------|
[ Tab from: http://www.guitartabs.cc/tabs/a/ac_dc/live_wire_btab_ver_2.html ]
Chorus (you can play wen he hits the drums (its like: rest rest hit hit rest rest hit 
or you can play continous notes) either sounds good
also this part starts on either 2 on the a string or 3 on the e string, you decide 
to the song if you dont kno wat im talkign about) also its played during a solo

G|------------------------------------------|
D|------------------------------------------|
A|---------2-2-2-2---------0-0-0-0-0-0-0-0--|
E|-3-3-3-3---------3-3-3-3------------------|

Bridge (keep playing thru bridge)

G|---------------------------------------------------------------------------------------|
D|-----------0------------0--------------------------------------------------------------|
A|-2-0-2-0-2----2-0-2-0-2----------------------------------------------------------------|
E|---------------------------------------------------------------------------------------|

ok thats it, hope you liked it. PLZ for the love of god rate this :) its my first tab, 
email me with comments if you wish :)

===============================================================================
Comments