Ac Dc - Lets Get It Up Chords & Tabs

 

Lets Get It Up Chords & Tabs

Ac Dc Chords & Tabs

Version: 1 Type: Tab 1 rating
1 star 2 stars 3 stars 4 stars 5 stars
comments

Lets Get It Up Tab

ok this song is another song by AC/DC that i have tabbed.
its also an awesome song. cause AC/DC rox!!! but ne-wayz 
here it is!
------------------------------------------------------------------------------
-------------------2--3--3----------------2-3-3-2-------------------------
-------------------2--2--2----------------2-2-2-2-------------------------
----------------2--2--4--4-------------2--2-4-4-2-------------------------
------------2------0--0--0----------2-----0-0-0-0-------------------------
--0---2/4-------------------0--2/4------------------------------------------
this is the main riff of the song
[ Tab from: http://www.guitartabs.cc/tabs/a/ac_dc/lets_get_it_up_tab.html ]
------------------------------------------------------------------------------
------------------------------------------------------------------------------
--4--4-------4--4---4------4---4--------4--4--4--------------------------
--4--4--2----4--4---4------4---4---2----4--4--4--------------------------
--0--2--2----0--2---2------0---2---2----0--2--2---------------------------
--------0--------------------------0--------------------------------------
 this comes right after the main riff

-------------------------------------------------------------------
-------------------------------------------------------------------
--4--4------4-----4--2------4--4--------4----4--2------------------
--4--4--2-2-4--2--4--2------4--4--2--2--4--2-4--2------------------
--2--2--2-2-2--2--2--0------2--2--2--2--2--2-2--0------------------
--------0-0----0------------------0--0-----0-----------------------
that is pretty much it...just listen to the song for timing...if
ya have any questions...IM me at geetar 69420...l8er!!!!!
Comments