Ac Dc - Let Me Put My Love Into You Chords & Tabs

 

Let Me Put My Love Into You Chords & Tabs

Ac Dc Chords & Tabs

Version: 3 Type: Tab 0 ratings
1 star 2 stars 3 stars 4 stars 5 stars
comments

Let Me Put My Love Into You Tab

-------------------------------------------------------------------------------
			Let Me Put My Love into You - AC/DC
-------------------------------------------------------------------------------
Tabbed by:MMBEAST(AKA)_MIKE M.
Email:Retardagain@aol.com

Tuning:EADGBE

h=hammer on
p=pull off
x=palm mute
~=vibrato
^=bend
.=Fast pick

e|--------------------------------------------------------------------------|
B|--------------------------------------------------------------------------|
G|--------------------------------------------------------------------------|
D|---5---4---5-------5---4---5-------5---4---5---4-----7--------------------|
A|---7---5---7-------7---5---7-------7---5---7---5-----7--------------------|
E|-----------------------------------------------------5--------------------|
	Repeat Multi-X

e|--------------------------------------------------------------------------|
B|--------------------------------------------------------------------------|
G|--------------------------------------------------------------------------|
D|---5---4---5-------5---4---5------5---4---5-----4---------7---------------|
A|---7---5---7--7----7---5---7--7---7---5---7--7--5--5------7---------------|
E|--------------0---------------0--------------0-----0------5---------------|
	Play with Song

e|--------------------------------------------------------------------------|
B|--------------------------------------------------------------------------|
G|----------5h7p0--------------------5h7p0----------------------------------|
D|-----5h7--------7---5--5------5h7--------7--7--7--------------------------|
A|--------------------7--7--------------------7--7--------------------------|
E|--------------------------------------------5--5--------------------------|

e|--------------------------------------------------------------------------|
B|--------------------------------------------------------------------------|
G|---------5h7p0---------------------5h7p0----------------------------------|
D|----5h7--------7---5--5-------5h7--------7--7--7--------------------------|
A|-------------------7--7---------------------7--7--------------------------|
E|--------------------------------------------5--5--------------------------|

e|---------------| Chords
B|---------------|
G|----7----------|
D|----7---7------|
A|----5---7----1-|
E|--------5----0-|

SOLO
[ Tab from: http://www.guitartabs.cc/tabs/a/ac_dc/let_me_put_my_love_into_you_tab_ver_3.html ]
e|--------------------------------------------12----------------------------|
B|------------------------------------------12--h15p12----------------------|
G|--------------------------------^13-~13-------------14-^14-14-~12---------|
D|--14-14-14-14-14-14-14-14-14-------------------------------------~14------|
A|--------------------------------------------------------------------------|
E|--xx-xx-xx-xx-xx-xx-xx-xx-xx----------------------------------------------|


e|--------------------------------------------------------------------------|
B|--------------------------------------------------------------------------|
G|--------------------------------------------------------^14-12h14---------|
D|--14-~14--12-~12--^11~11---12--14--------------------14-----------~14-----|
A|----------------------------------12h14p12--12-10-------------------------|
E|------------------------------------------15-----12-----------------------|

e|--------------------------------------------------------------------------|
B|----^13--^12-----------15---15---15-----15.15--15.15---15.15---15.15------|
G|--------------12h14-^14--^14--^14----^14----^14-----^14-----^14-----------|
D|--14---14-----------------------------------------------------------------|
A|--------------------------------------------------------------------------|
E|--------------------------------------------------------------------------|
     note- play that last thing until it stops

e|--------------------------------------------------------------------------|
B|-------------------15-------------------------15---15---------------------|
G|--^14p12h14-----^14--14p12h14--~12---12h14-^14--^14--~14------------------|
D|------------14---------------14-------------------------------------------|
A|--------------------------------------------------------------------------|
E|--------------------------------------------------------------------------|

e|----12---12-15p12----12---12---^15-19-^15---------------------------------|
B|--12---15---------^15--^15------------------^15-15------------------------|
G|---------------------------------------------------^14-^12----------------|
D|-----------------------------------------------------------^14-~12-~11----|
A|--------------------------------------------------------------------------|
E|--------------------------------------------------------------------------|
	Mix the first few riffs around.
Refer: to Chords.
Comments