Ac Dc - Let Me Put My Love Into You Chords & Tabs

 

Let Me Put My Love Into You Chords & Tabs

Ac Dc Chords & Tabs

Version: 1 Type: Tab 3 ratings
1 star 2 stars 3 stars 4 stars 5 stars
comments

Let Me Put My Love Into You Tab

   
Simply a classic among many great ACDC songs..... I cant believe no one had tabbed it yet

Verse /Intro
  E  D  E              D   A
-----------------------------------------------------------------------------
-----------------------------------------------------------------------------
--9--7--9------------7---------------------------------------------------------
--9--7--9---X 3---- 7---7-----------------------------------------------------------
--7--5--7------------5---7----------------------------------------------------------
---------------------------5--------------------------------------------------
[ Tab from: http://www.guitartabs.cc/tabs/a/ac_dc/let_me_put_my_love_into_you_tab.html ]
Chorus	 E  E			A  A
	         Dont you struggle		Dont You fight
------------------------		       -----------------------------------------------------
---------3-------------		       --------3-------------------------------------------
--0-2-4--4-0---------		     0-2-4--4-0------2--2----------------------------
-----------------2--2--	      	-------------------2--2-----------------------------
-----------------2--2--		      -------------------0--0-----------------------------
-----------------0--0--		      -----------------------------------------------------



Let Me Put My Love Into You, Babe
 D		    A		E
--2-------------------------------------------------------------------
--3-------------------------------------------------------------------
--2------------------2-----------------------------------------------
--0------------------2-------------2--------------------------------
----------------------0-------------2--------------------------------
-------------------------------------0--------------------------------
Comments