Ac Dc - Jailbreak Chords & Tabs

 

Jailbreak Chords & Tabs

Ac Dc Chords & Tabs

Version: 3 Type: Tab 0 ratings
1 star 2 stars 3 stars 4 stars 5 stars
comments

Jailbreak Tab

   
Jailbreak
AC/DC

Tabbed by:
Toshiro

Tuning:
Lead Guitar: E-A-D-G-B-E
Rhythm Guitar: E-A-D-G-B-E

--------------------------------------------------------------------

LEAD GUITAR (All Distorted)

Intro
|-------0--------------0--------------0--------------0----------|
|-------0-x-x-3--------0-x-x-3--------0-x-x-3--------0-x-x-3----|
|---------x-x-2--2-------x-x-2--2-------x-x-2--2-------x-x-2--2-|
|-x-0h2---x-x-0--2-0h2---x-x-0--2-0h2---x-x-0--2-0h2---x-x-0--2-|
|-x-0h2----------0-0h2----------0-0h2----------0-0h2----------0-|
|-x-0--------------0--------------0--------------0--------------|

Verse (x6)
|-----0----------|
|-----0-x-x-3----|
|-------x-x-2--2-|
|-0h2---x-x-0--2-|
|-0h2----------0-|
|-0--------------|

Rhythm Fill
|--------|
|--------|
|--------|
|--------|
|--------|
|-0\-----|

Verse (x16)
|-----0----------|
|-----0-x-x-3----|
|-------x-x-2--2-|
|-0h2---x-x-0--2-|
|-0h2----------0-|
|-0--------------|

Pre-Chorus
|-----------------------------------|
|-------3--3--3--3-------3--3--3--3-|
|-2-----2--2--2--2-2-----2--2--2--2-|
|-2-----0--0--0--0-2-----0--0--0--0-|
|-0----------------0----------------|
|-----------------------------------|

|-----------------------------------|
|------------------------3--3--3--3-|
|-4----------------4-----2--2--2--2-|
|-4-----2--2--2--2-4-----0--0--0--0-|
|-2-----2--2--2--2-2----------------|
|-------0--0--0--0------------------|

Chorus (x15)
|----------------|
|----------------|
|----------------|
|----------------|
|-----------5--4-|
|-0-0-0/4-0------|

Rhythm Fill
|-------|
|-------|
|-------|
|-2-----|
|-2-----|
|-0-----|

Verse (x16)
|-----0----------|
|-----0-x-x-3----|
|-------x-x-2--2-|
|-0h2---x-x-0--2-|
|-0h2----------0-|
|-0--------------|

Pre-Chorus
|-----------------------------------|
|-------3--3--3--3-------3--3--3--3-|
|-2-----2--2--2--2-2-----2--2--2--2-|
|-2-----0--0--0--0-2-----0--0--0--0-|
|-0----------------0----------------|
|-----------------------------------|

|-----------------------------------|
|------------------------3--3--3--3-|
|-4----------------4-----2--2--2--2-|
|-4-----2--2--2--2-4-----0--0--0--0-|
|-2-----2--2--2--2-2----------------|
|-------0--0--0--0------------------|

Chorus (x8)
|----------------|
|----------------|
|----------------|
|----------------|
|-----------5--4-|
|-0-0-0/4-0------|

Solo
|-16b(17)-16b(17)v-17p15--------------------------------------|
|------------------------17p15-17-15b(17)---------------------|
|--------------------------------------------19--19--18v----\-|
|-------------------------------------------------------------|
|-------------------------------------------------------------|
|-------------------------------------------------------------|

|---------------------|
|---------------------|
|---------------------|
|---------------------|
|---------------------|
|--5--5--5b(7)v-----\-|

|--17b(19)--17b(19)v---19p17-----------------------17-17\--|
|----------------------------19p17-19--17b(19)--19----19\--|
|----------------------------------------------------------|
|----------------------------------------------------------|
|----------------------------------------------------------|
|----------------------------------------------------------|

Interlude
|----------------------|
|----------------------|
|----------------------|
|-2--------------------|
|-2--------------------|
|-0--------------------|

|--------|
|--------|
|--------|
|--------|
|---7v---|
|---7v---|

|---10===-\-|
|---12===-\-|
|-----------|
|-----------|
|-----------|
|-----------|

|-------------|
|-------------|
|-------------|
|-------------|
|-------------|
|---x<---x<---|

Chorus (x10)
|----------------|
|----------------|
|----------------|
|----------------|
|-----------5--4-|
|-0-0-0/4-0------|

Solo (Play to fadeout)
|-----10b(12)--12p10----------------------|
|--------------------12p10------10--------|
|--------------------------12p9----12v--\-|
|-----------------------------------------|
|-----------------------------------------|
|-----------------------------------------|

|-----17---15-12-12---10-12-17---15-12v---\-|
|-------------------------------------------|
|-------------------------------------------|
|-------------------------------------------|
|-------------------------------------------|
|-------------------------------------------|
[ Tab from: http://www.guitartabs.cc/tabs/a/ac_dc/jailbreak_tab_ver_3.html ]
|--10b(12)---12p10----------------------------------------|
|------------------12p10-------------------10h12-10b(12)--|
|------------------------12p9---------9h12----------------|
|-----------------------------12p9h12---------------------|
|---------------------------------------------------------|
|---------------------------------------------------------|

|-------10----10-12-10b(12)---10------------------------|
|-10-10----12--------------------12p10------------------|
|--------------------------------------12p10h12-10b(12)-|
|-------------------------------------------------------|
|-------------------------------------------------------|
|-------------------------------------------------------|

|-----------------------------10----10----------10-|
|--------------------------12----12----12p10h12----|
|---9---9v--12-12-12/13\---------------------------|
|-----9--------------------------------------------|
|--------------------------------------------------|
|--------------------------------------------------|

|-12-10b(12)--12-15-10-12-12-10-10b(12)--10-12-|
|----------------------------------------------|
|----------------------------------------------|
|----------------------------------------------|
|----------------------------------------------|
|----------------------------------------------|

|-10-----------------------------10-----10-----10-----10------|
|----12p10-12-10b(12)--12p10-12-----12-----12-----12-----12---|
|-------------------------------------------------------------|
|-------------------------------------------------------------|
|-------------------------------------------------------------|
|-------------------------------------------------------------|

-------------------------------------------------------------------------

RHYTHM GUITAR (All Distorted)

Intro
|-------------|
|-------------|
|-------------|
|---NOTHING---|
|-------------|
|-------------|

Verse
|-------------|
|-------------|
|-------------|
|---NOTHING---|
|-------------|
|-------------|

Rhythm Fill
|-------------|
|-------------|
|-------------|
|---NOTHING---|
|-------------|
|-------------|

Verse (x16)
|-----0----------|
|-----0-x-x-3----|
|-------x-x-2--2-|
|-0h2---x-x-0--2-|
|-0h2----------0-|
|-0--------------|

Pre-Chorus
|-----------------------------------|
|-------3--3--3--3-------3--3--3--3-|
|-2-----2--2--2--2-2-----2--2--2--2-|
|-2-----0--0--0--0-2-----0--0--0--0-|
|-0----------------0----------------|
|-----------------------------------|

|-----------------------------------|
|------------------------3--3--3--3-|
|-4----------------4-----2--2--2--2-|
|-4-----2--2--2--2-4-----0--0--0--0-|
|-2-----2--2--2--2-2----------------|
|-------0--0--0--0------------------|

Chorus (x15)
|----------------|
|----------------|
|----------------|
|----------------|
|-----------5--4-|
|-0-0-0/4-0------|

Rhythm Fill
|-------|
|-------|
|-------|
|-2-----|
|-2-----|
|-0-----|

Verse (x16)
|-----0----------|
|-----0-x-x-3----|
|-------x-x-2--2-|
|-0h2---x-x-0--2-|
|-0h2----------0-|
|-0--------------|

Pre-Chorus
|-----------------------------------|
|-------3--3--3--3-------3--3--3--3-|
|-2-----2--2--2--2-2-----2--2--2--2-|
|-2-----0--0--0--0-2-----0--0--0--0-|
|-0----------------0----------------|
|-----------------------------------|

|-----------------------------------|
|------------------------3--3--3--3-|
|-4----------------4-----2--2--2--2-|
|-4-----2--2--2--2-4-----0--0--0--0-|
|-2-----2--2--2--2-2----------------|
|-------0--0--0--0------------------|

Chorus (x8)
|----------------|
|----------------|
|----------------|
|----------------|
|-----------5--4-|
|-0-0-0/4-0------|

Solo
|-----------------------------------|
|-------3--3--3--3-------3--3--3--3-|
|-2-----2--2--2--2-2-----2--2--2--2-|
|-2-----0--0--0--0-2-----0--0--0--0-|
|-0----------------0----------------|
|-----------------------------------|

|-----------------------------------|
|------------------------3--3--3--3-|
|-4----------------4-----2--2--2--2-|
|-4-----2--2--2--2-4-----0--0--0--0-|
|-2-----2--2--2--2-2----------------|
|-------0--0--0--0------------------|

Interlude
|----------------------|
|----------------------|
|----------------------|
|-2--------------------|
|-2--------------------|
|-0--------------------|

Chorus (x10)
|----------------|
|----------------|
|----------------|
|----------------|
|-----------5--4-|
|-0-0-0/4-0------|

Solo (Play to fadeout)
|----------------|
|----------------|
|----------------|
|----------------|
|-----------5--4-|
|-0-0-0/4-0------|
Comments