Ac Dc - Its A Long Way To The Top Chords & Tabs

 

Its A Long Way To The Top Chords & Tabs

Ac Dc Chords & Tabs

Version: 5 Type: Tab 0 ratings
1 star 2 stars 3 stars 4 stars 5 stars
comments

Its A Long Way To The Top Tab

   
b=bend
/=slide down
\= slide up
v=vibrato
p=pull off
r=let it ring
h=hammer on
x=pick scrape
<=rake up
>=rake down
v(above tab)= upstroke
note* allways downstroke unless stated otherwise.
**********************************************************************************
It's A Long Way To The Top(if you wanna rock n' roll)
Ac/Dc
High Voltage(1973) 
Young/Young/Scott
Tuning: Standard 

intro/verse 1 
	           
e------------------------------|-7-7----|
b------------------------------|-7-7----|repeat the second part 8 times with
g-4--4-x-4---4-----------------|--------|intervals when bon sings
d-4--4-x-4---4-repeat 24 times-|--------|
a-0--2-x-2---2-----------------|--------|
E------------------------------|--------|

chorus:
A                        G           D           A
It's a long way to the top if you wanna rock n' roll

A                        G           D           A
It's a long way to the top if you wanna rock n' roll

A 				    D
Think it's easy doin one night stands, try playin in a rock roll band

G		       D                          A	
It's a long way to the top if you wanna rock n' roll
[ Tab from: http://www.guitartabs.cc/tabs/a/ac_dc/its_a_long_way_to_the_top_tab_ver_5.html ]
solo:        riffs in between
e------7-|-----------------------------19-16-19-------------------|sorry i 
b--------|--15-12-14----12----12----------------19-17-------------|dont know
g--7/8---|-----------13----13-------------------------19-17-17-14-|the last
d--------|--------------------------------------------------------|one :(
a--------|--------------------------------------------------------|
E--------|--------------------------------------------------------|

verse 2:
e------------------------------|-7-7----|
b------------------------------|-7-7----|repeat the second part 8 times with
g-4--4-x-4---4-----------------|--------|intervals when bon sings
d-4--4-x-4---4-repeat 12 times-|--------|
a-0--2-x-2---2-----------------|--------|
E------------------------------|--------|

chorus:

A                        G           D           A
It's a long way to the top if you wanna rock n' roll

A                        G           D           A
It's a long way to the top if you wanna rock n' roll

A 				    D
Think it's easy doin one night stands, try playin in a rock roll band

G		       D                          A	
It's a long way to the top if you wanna rock n' roll
then repeat a few times and fade off into ending
Comments