Ac Dc - Its A Long Way To The Top Chords & Tabs

 

Its A Long Way To The Top Chords & Tabs

Ac Dc Chords & Tabs

Version: 1 Type: Chords 5 ratings
1 star 2 stars 3 stars 4 stars 5 stars
comments

Its A Long Way To The Top Chords

   
I was looking at "Dave the Bass Kings tab" and saw it needed a few tweaks.
This is my first tab too so lay off - jk (it really is my first tab)

Intro/Verses
         A A      A A
E------0------0-----------------------------------------------
B------0-2-2--0-2-2-------------------------------------------
G------0-2-2--0-2-2---Continue as long as you want------------(or listen to song)
D------0-2-2--0-2-2-------------------------------------------
A-------------------------------------------------------------
E-------------------------------------------------------------
 
Then you can add this optional little bridge/pre chorus thing
[ Tab from: http://www.guitartabs.cc/tabs/a/ac_dc/its_a_long_way_to_the_top_crd.html ]
            A     
E------0-----------------------------------
B------0-2---------------------------------
G------0-2--(let ring for two mesures)-----  (repeat)
D------0-2---------------------------------
A------------------------------------------
E------------------------------------------
  Chorus

    A A A A   G    D    A A
E-------------3----2--0------------------------------------
B---2-2-2-2---0----3--0-2-2--------------------------------
G---2-2-2-2---0----2--0-2-2--------------------------------
D---2-2-2-2---0-------0-2-2--------------------------------
A-------------2--------------------------------------------
E-------------3--------------------------------------------
(let the G and D ring a little as well as figure out the beat according to the song)

Personally I like to play to "its a long way to the top" done by the School of Rock
band in the movie School of Rock.


Enjoy Coca Cola...
o ya and this tab :P

Created By Butch Aka Ricco Suave Aka The fonz
Or simply Stef
Comments