Ac Dc - Highway To Hell Live Chords & Tabs

 

Highway To Hell Live Chords & Tabs

Ac Dc Chords & Tabs

Version: 1 Type: Tab 0 ratings
1 star 2 stars 3 stars 4 stars 5 stars
comments

Highway To Hell Live Tab

main riff
e-----------2--2-----2--2----2----------------------------------------------
b-2--2--2---3--3-----3--3----3----2-2---------------------------------------
g-2--2--2---2--2-----2--2----2----2-2---------------------------------------
d-2--2--2-------------------------2-2---------------------------------------
a---------------------------------------------------------------------------
e----------------3--------3-------------------------------------------------

play main riff 4x

then play this

e---------------------------------------------------------------------------
b---------------------------------------------------------------------------
g---------------------------------------------------------------------------
d------2--2--2--2--2--2--2--2--2--2--2--2--2--2--2--------------------------
a------2--2--2--2--2--2--2--2--2--2--2--2--2--2--2--------------------------
e--0------------------------------------------------------------------------

chorus play 4x

e---------------2--2--2--------3--3------------------------------------------
b--2--2--2------3--3--3--------3--3------------------------------------------
g--2--2--2--0---2--2--2--------0--2------------------------------------------
d--2--2--2--0------------------0--0------------------------------------------
a------------------------------0--0------------------------------------------
e------------------------0--3--3--3------------------------------------------
 




solo
    
    ~ vibrate
    ) slide up
    ^ bend up
    @ let ring
    
 
 
[ Tab from: http://www.guitartabs.cc/tabs/a/ac_dc/highway_to_hell_live_tab.html ]
e-------5-5-----5-5-----5-5-----5-5-----5-5-----------------------------------------
b-------5-5-----5-5-----5-5-----5-5-----5-5-----------------------------------------
g---7)9~----7)9~--- 7)9~----7)9~----7)9~----7-5@--5-7-5-------5-7-5---7^9-7^9-7^9---
d-------------------------------------------------------7-5-7-----------------------
a-----------------------------------------------------------------------------------
e-----------------------------------------------------------------------------------

e---------------------------17^19-17^19-17^19--------------------------------------
b--8--5-5-5-5-3-5-9----------------------------------------------------------------
g-------------------9-7-9-12-------------------------------------------------------
d----------------------------------------------------------------------------------
a----------------------------------------------------------------------------------
e----------------------------------------------------------------------------------


chorus 4x

e---------------2--2--2------3--3-------------------------------------------------------
b--2--2--2------3--3--3------3--3----------------------------------------------------------
g--2--2--2---0--2--2--2------0--2-----------------------------------------------------------
d--2--2--2---0---------------0--0--------------------------------------------------------
a----------------------------0--0----------------------------------------------------
e------------------------0-3-3--3------------------------------------------------------


well i hope you like it













































Comments