Ac Dc - Highway To Hell Chords & Tabs

 

Highway To Hell Chords & Tabs

Ac Dc Chords & Tabs

Version: 2 Type: Bass Tab 0 ratings
1 star 2 stars 3 stars 4 stars 5 stars
comments

Highway To Hell Bass Tab

Artist:AC/DC
Song:Highway to Hell
Written by ACDC
Bass performed by Cliff (sly willy) Williams
tabbed by coolbassist220

(E tuning as with every AC/DC song)

intro

G|--------------------------------------------------------------|
D|--------------------------------------------------------------|
A|--------------------------------------------------------------|
E|--5-5-5------2-2-3------2-2-3-----2-2-3------2-2-5------------|

G|--------------------------------------------------------------|
D|--------------------------------------------------------------|
A|--------------------------------------------------------------|
E|--5-5-5------2-2-3------2-2-3-----2-2-3------2-2-5------------|


1st version

G|--------------------------------------------------------------|
D|--------------------------------------------------------------|
A|--------------------------------------------------------------|
E|--5-5-5------2-2-3------2-2-3-----2-2-3------2-2-0------------|

G|--------------------------------------------------------------|
D|--------------------------------------------------------------|
A|--------------------------------------------------------------|
E|--5-5-5------2-2-3------2-2-3-----2-2-3------2-2-5------------|

G|--------------------------------------------------------------|
D|--------------------------------------------------------------|
A|--------------------------------------------------------------|
E|--5-5-5------2-2-3------2-2-3-----2-2-3------2-2-5------------|

G|--------------------------------------------------------------|
D|--------------------------------------------------------------|
A|--------------------------------------------------------------|
E|--5-5-5------2-2-3------2-2-3-----2-2-3------2-2-5------------|

(I'm on the...)

G|--------------------------------------------------------------|
D|---------------------5----------------------------------------|
A|------------5-5-5-5-----5-------------------------------------|
E|--5--5--5-----------------------------------------------------|

G|--------------------------------------------------------------|
D|---------------------5----------------------------------------|
A|------------5-5-5-5-----5-------------------------------------|
E|--5--5--5-----------------------------------------------------|

G|--------------------------------------------------------------|
D|---------------------5----------------------------------------|
A|------------5-5-5-5-----5-------------------------------------|
E|--5--5--5-----------------------------------------------------|

G|--------------------------------------------------------------|
D|---------------------5----------------------------------------|
A|------------5-5-5-5-----0-------------------------------------|
E|--5--5--5-----------------------------------------------------|

2nd version

G|--------------------------------------------------------------|
D|--------------------------------------------------------------|
A|--------------------------------------------------------------|
E|--5-5-5------2-2-3------2-2-3-----2-2-3------2-2-5------------|

G|--------------------------------------------------------------|
D|--------------------------------------------------------------|
A|--------------------------------------------------------------|
E|--5-5-5------2-2-3------2-2-3-----2-2-3------2-2-5------------|

G|--------------------------------------------------------------|
D|--------------------------------------------------------------|
A|--------------------------------------------------------------|
E|--5-5-5------2-2-3------2-2-3-----2-2-3------2-2-5------------|

G|--------------------------------------------------------------|
D|--------------------------------------------------------------|
A|--------------------------------------------------------------|
E|--5-5-5------2-2-3------2-2-3-----2-2-3------2-2-0------------|

(I'm on the...)

G|--------------------------------------------------------------|
D|---------------------5----------------------------------------|
A|------------5-5-5-5-----5-------------------------------------|
E|--5--5--5-----------------------------------------------------|
[ Tab from: http://www.guitartabs.cc/tabs/a/ac_dc/highway_to_hell_btab_ver_2.html ]
G|--------------------------------------------------------------|
D|---------------------5----------------------------------------|
A|------------5-5-5-5-----5-------------------------------------|
E|--5--5--5-----------------------------------------------------|

G|--------------------------------------------------------------|
D|---------------------5----------------------------------------|
A|------------5-5-5-5-----5-------------------------------------|
E|--5--5--5-----------------------------------------------------|

G|--------------------------------------------------------------|
D|---------------------5----------------------------------------|
A|------------5-5-5-5-----0-------------------------------------|
E|--5--5--5-----------------------------------------------------|

G|--------------------------------------------------------------|
D|--------------------------------------------------------------|
A|--------------------------------------------------------------|
E|55555---55555-------------------------------------------------|

(during the solo)

G|--------------------------------------------------------------|
D|---------------------5----------------------------------------|
A|------------5-5-5-5-----5-------------------------------------|
E|--5--5--5-----------------------------------------------------|

G|--------------------------------------------------------------|
D|---------------------5----------------------------------------|
A|------------5-5-5-5-----5-------------------------------------|
E|--5--5--5-----------------------------------------------------|

G|--------------------------------------------------------------|
D|---------------------5----------------------------------------|
A|------------5-5-5-5-----5-------------------------------------|
E|--5--5--5-----------------------------------------------------|

G|--------------------------------------------------------------|
D|---------------------5----------------------------------------|
A|------------5-5-5-5-----0-------------------------------------|
E|--5--5--5-----------------------------------------------------|

(I'm on the)

G|--------------------------------------------------------------|
D|---------------------5----------------------------------------|
A|------------5-5-5-5-----5-------------------------------------|
E|--5--5--5-----------------------------------------------------|

G|--------------------------------------------------------------|
D|---------------------5----------------------------------------|
A|------------5-5-5-5-----5-------------------------------------|
E|--5--5--5-----------------------------------------------------|

G|--------------------------------------------------------------|
D|---------------------5----------------------------------------|
A|------------5-5-5-5-----5-------------------------------------|
E|--5--5--5-----------------------------------------------------|

G|--------------------------------------------------------------|
D|---------------------5----------------------------------------|
A|------------5-5-5-5-----0-------------------------------------|
E|--5--5--5----------------------------------55-----------------|

G|--------------------------------------------------------------|
D|---------------------5----------------------------------------|
A|------------5-5-5-5-----5-------------------------------------|
E|--5--5--5-----------------------------------------------------|

G|--------------------------------------------------------------|
D|---------------------5----------------------------------------|
A|------------5-5-5-5-----5-------------------------------------|
E|--5--5--5-----------------------------------------------------|

G|--------------------------------------------------------------|
D|---------------------5----------------------------------------|
A|------------5-5-5-5-----5-------------------------------------|
E|--5--5--5-----------------------------------------------------|

G|--------------------------------------------------------------|
D|---------------------5----------------------------------------|
A|------------5-5-5-5-----o-------------------------------------|
E|--5--5--5-----------------------------------------------------|

(And I'm Goin'Down...)

G|---------12-12-12-12-12-12-12-12-12-12-12-12-12-12-12-12-------|
D|-------------------------------------------------------------2-|
A|---------------------------------------------------------------|
E|---------------------------------------------------------------|
(only really fast)


Well that's it. It sounds good when you get the hang of it
coolbassist220
Comments