Ac Dc - High Voltage Chords & Tabs

 

High Voltage Chords & Tabs

Ac Dc Chords & Tabs

Version: 5 Type: Tab 0 ratings
1 star 2 stars 3 stars 4 stars 5 stars
comments

High Voltage Tab

  Intro:
E|--------------------|--------------------|-----------------------|--------------------|
B|--------------------|--------------------|-----------------------|--------------------|
G|----------------9-9-|--9--------------7--|-------2----2------9-9-|--9--------------7--|
D|----------------9-9-|--9--------------7--|----7--2----2------9-9-|--9--------------7--|
A|----------------7-7-|--7--------------5--|----4--0----0------7-7-|--7--------------5--|
E|--------------------|--------------------|-----------------------|--------------------|

|-----------------------|--------------------|-----------------------|--------------------|
|-----------------------|--------------------|-----------------------|--------------------|
|-------2----2------9-9-|--9--------------7--|-------2----2------9-9-|--9--------------7--|
|----7--2----2------9-9-|--9--------------7--|----7--2----2------9-9-|--9--------------7--|
|----4--0----0------7-7-|--7--------------5--|----4--0----0------7-7-|--7--------------5--|
|-----------------------|--------------------|-----------------------|--------------------|

|-----------------------|------------------------|-------------------------|-------------------|
|-----------------------|------------------------|-------------------------|-------------------|
|-------2----2------2-2-|-------2----2-----2--2--|----2--2-----2--x--2--2--|----2----2---2--2--|
|----7--2----2------2-2-|-------4----2-----4--2--|----2--4-----2-----4--2--|----4----2---4--2--|
|----4--0----0------0-0-|----0--0----0--x--0--0--|----0--0--x--0-----0--0--|-0--0----0-x-0--0--|
|-----------------------|------------------------|-------------------------|-------------------|

                     Verse: well you...  (see 2nd guitar fill ins below)
|-------------------------||--------------------------|-----------------------|----------------|
|-------------------------||--------------------------|-----------------------|----------------|
|----2--2-----2--------9--||*----9--------9--------9--|---9--------9--------7-|-7-----7-----7--|
|----2--4-----2--------9--||*----9--------9--------9--|---9--------9--------7-|-7-----7-----7--|
|----0--0--x--0--x--0--7--||-----7--------7--------7--|---7--------7--------5-|-5-x-5-5-x-5-5--|
|-------------------------||-----0--x--0--0--x--0--0--|---0--x--0--0--x--0----|----------------|
                         2x-
|------------------------||----------------------|----------------------|----------------------|
|------------------------||----------------------|----------------------|----------------------|
|--7--------7--------9--*||--9--------9--------9-|--9--------9--------7-|-7--------7--------5--|
|--7--------7--------9--*||--9--------9--------9-|--9--------9--------7-|-7--------7--------5--|
|--5--x--5--5--x--5--7---||--7--------7--------7-|--7--------7--------5-|-5--x--5--5--x--5--3--|
|--------------------0---||--0--x--0--0--x--0--0-|--0--x--0--0--x--0----|----------------------|
[ Tab from: http://www.guitartabs.cc/tabs/a/ac_dc/high_voltage_tab_ver_5.html ]
|-------------------------|----------------------|-----------------------|---------------------|
|-------------------------|----------------------|-----------------------|---------------------|
|----5--------5--------2--|-----2----2-----2--2--|--2--2-----2--x--2--2--|----2----2-----2--2--|
|----5--------5--------2--|-----4----2-----4--2--|--2--4-----2-----4--2--|----4----2-----4--2--|
|----3--x--3--3--x--3--0--|--0--0----0--x--0--0--|--0--0--x--0-----0--0--|-0--0----0--x--0--0--|
|-------------------------|----------------------|-----------------------|---------------------|
                           High           voltage...
|-------------------------|--------------------|--------------------|------------------------|
|-------------------------|--------------------|--------------------|------------------------|
|----2--2-----2--x--2--2--|--2--------------5--|--------7--------2--|-------2----2-----2--2--|
|----2--4-----2-----2--2--|--2--------------5--|--------7--------2--|-------4----2-----4--2--|
|----0--0--x--0-----0--0--|--0--------------3--|--------5--------0--|----0--0----0--x--0--0--|
|-------------------------|--------------------|--------------------|------------------------|
                           high           voltage...
|-------------------------|--------------------|--------------------|------------------------|
|-------------------------|--------------------|--------------------|------------------------|
|----2--2-----2--x--2--2--|--2--------------5--|--------7--------2--|-------2----2-----2--2--|
|----2--4-----2-----2--2--|--2--------------5--|--------7--------2--|-------4----2-----4--2--|
|----0--0--x--0-----0--0--|--0--------------3--|--------5--------0--|----0--0----0--x--0--0--|
|-------------------------|--------------------|--------------------|------------------------|
                                high          voltage..                       high     voltage...
|-------------------------|-----------------------|-------------------|----------------------|
|-------------------------|-----------------------|-------------------|----------------------|
|----2--2-----2-----2--5--|------5----5--5--5--7--|--7----7--7--7--5--|-----5----5--5--5--7--|
|----2--2-----2-----2--5--|------5----5--5--5--7--|--7----7--7--7--5--|-----5----5--5--5--7--|
|----0--0--x--0--x--0--3--|------3----3--3--3--5--|--5----5--5--5--3--|-----3----3--3--3--5--|
|-------------------------|-----------------------|-------------------|----------------------|
                              high          voltage...
|-----------------------|--------------------3--|--------2-----------|-----------------------|
|-----------------------|--------------------3--|--------3-----------|-----------------------|
|------7----7--7--7--5--|------5----5--5--5--0--|--------2--------2--|------2----2-----2--2--|
|------7----7--7--7--5--|------5----5--5--5--0--|--------0--------2--|------4----2-----4--2--|
|------5----5--5--5--3--|------3----3--3--3-----|-----------------0--|---0--0----0--x--0--0--|
|-----------------------|--------------------3--|--------------------|-----------------------|
                                                                    to verse:
|-------------------------|------------------------|-------------------------|
|-------------------------|------------------------|-------------------------|
|----2--2-----2--x--2--2--|-------2----2-----2--2--|----2--2-----2--------9--|
|----2--4-----2-----4--2--|-------4----2-----4--2--|----2--4-----2--------9--|
|----0--0--x--0-----0--0--|----0--0----0--x--0--0--|----0--0--x--0--x--0--7--|
|-------------------------|------------------------|-------------------------|


 2nd guitar on verse:
|-------------------|-----5------5---------|-----5------5---------|-----5------5---------|
|-------------------|-----5------5---------|-----5------5---------|-----5------5---------|
|----------------5h-|--6----------------5--|--6----------------5--|--6----------------5--|
|-------------------|----------------------|----------------------|----------------------|
|-------------------|----------------------|----------------------|----------------------|
|-------------------|----------------------|----------------------|----------------------|
                   well you...
|-----5------5----------||-------12----12-------|------12---12--------|------10----10----------|
|-----5------5----------||-------12----12-------|------12---12--------|------10----10----------|
|--6----------------12--||*--13-------------12--|--13-------------10--|--11----------------10--|
|-----------------------||*---------------------|---------------------|------------------------|
|-----------------------||----------------------|---------------------|------------------------|
|-----------------------||----------------------|---------------------|------------------------|
                          2x
|------10------10-----------||------12------12----------|------12----12--------|------10--10--|
|------10------10-----------||------12------12----------|------12----12--------|------10--10--|
|--11------------------12--*||--13------------------12--|--13--------------10--|--11----------|
|--------------------------*||--------------------------|----------------------|--------------|
|---------------------------||--------------------------|----------------------|--------------|
|---------------------------||--------------------------|----------------------|--------------|

|----8----8-------------|-----5------5---------|-----5------5---------|-----5------5---------|
|----8----8----7--5-----|-----5------5---------|-----5------5---------|-----5------5---------|
|--------------------5--|--6----------------5--|--6----------------5--|--6----------------5--|
|-----------------------|----------------------|----------------------|----------------------|
|-----------------------|----------------------|----------------------|----------------------|
|-----------------------|----------------------|----------------------|----------------------|
                        high voltage...
|-----5------5---------|------------------|
|-----5------5---------|------------------|
|--6----------------5--|------------------|
|----------------------|------------------|
|----------------------|------------------|
|----------------------|------------------|
Comments