Ac Dc - Hells Bells Chords & Tabs

 

Hells Bells Chords & Tabs

Ac Dc Chords & Tabs

Version: 3 Type: Tab 6 ratings
1 star 2 stars 3 stars 4 stars 5 stars
comments

Hells Bells Tab

   
Band:AC/DC                                                   Tabbed by Zep3000
Song:Hells Bells
ALbum:Who made Who

Standard Tuning: EADGBe

                    This is 100% correct                         
LEGEND:                                                     
hb=half bend
fb=full bend
r=release bend
~~=vibrato
^=harmonic
()=Acciaccatura
[]=tied note
:::::=hold bend over notes, then release
:
/=legato slide
\=shift slide
XXX=pickscrape


Intro  let ring
e--------------------------------------------------------|
B--------------------------------------------------------|
G----9----7-----5-----7--------9---7-----5------7--------|
D------7----7-----5-----7--------7---7-----5----7-5-5-2--|
A--0----------0-----0------0-0---------0------0---3-2-0--|
E--------------------------------------------------------|

                                                      x5
e--------------------------------------------------------|
B--------------------------------------------------------|
G--9----7-----5-----7-------9---7-----5------7-----------|
D----7----7-----5-----7-------7---7-----5----7-5-5-2-----|
A-----------0-----0-----0-0---------0------0---3-2-0-----|
E--------------------------------------------------------|

Verse                          x6
e---------------------------------|
B---------------------------------|
G--9--7--9----7--5--7-------------|
D--9--7--9----7--5--7-----5-5-2---|
A--7--7--7----5--5--5---0-3-2-0---|
E---------------------------------|


e|-------------------------------|
B|-------------------------------|
G|-----------2-0-2---------------|
D|-0-2-0-2---0-0-0--0-0-0----5-5-|
A|-0-0-0-0-----------------0-3-2-|
E|-------------------------------|
                    

e|---2---2---2---2-2-2------3-|---------------------2---------------------3-----|
B|---3-3-3---3-3-3-3-3----5-3-|---------------------3-2-------------------3-----|
G|---2-0-2---2-0-2-2-2-0--5-0-|-------------------0-2-2-----------------0-0-----|
D|-0-0-0-0---0-0-0-0-0-0--5-0-|---9-7-9-----9-7-9-0-0-2---9-7-9---9-7-9-0-0-----|
A|------------------------3-x-|---7-5-5-----7-5-7-----0---7-5-7---7-5-7---x-----|
E|--------------------------3-|-0-----------------------0-----------------3-3hb-|

Chorus
e--------------------------------------------------------|
B--------------------------------------------------------|
G----9----7-----5-----7--------9---7-----5------7--------|
D------7----7-----5-----7--------7---7-----5----7-5-5-2--|
A--0----------0-----0------0-0---------0------0---3-2-0--|
E--------------------------------------------------------|

                  

e----------------------------------------------------------------5-------|
B----------------------------------------8-7hb-5^----------------5-7hb-7-|
G----9----7-----5-----7--------9---7-----7-7------7-5hb------------7---7-|
D------7----7-----5-----7--------7---7------------------(5)h7~~~---------|
A--0----------0-----0------0-0---------0---------------------------------|
E------------------------------------------------------------------------|
                                                

Verse                          x6
e---------------------------------|
B---------------------------------|
G--9--7--9----7--5--7-------------|
D--9--7--9----7--5--7-----5-5-2---|
A--7--7--7----5--5--5---0-3-2-0---|
E---------------------------------|


e|-------------------------------|
B|-------------------------------|
G|-----------2-0-2---------------|
D|-0-2-0-2---0-0-0--0-0-0----5-5-|
A|-0-0-0-0-----------------0-3-2-|
E|-------------------------------|
                    

e|---2---2---2---2-2-2------3-|---------------------2---------------------3-----|
B|---3-3-3---3-3-3-3-3----5-3-|---------------------3-2-------------------3-----|
G|---2-0-2---2-0-2-2-2-0--5-0-|-------------------0-2-2-----------------0-0-----|
D|-0-0-0-0---0-0-0-0-0-0--5-0-|---9-7-9-----9-7-9-0-0-2---9-7-9---9-7-9-0-0-----|
A|------------------------3-x-|---7-5-5-----7-5-7-----0---7-5-7---7-5-7---x-----|
E|--------------------------3-|-0-----------------------0-----------------3-3hb-|


Chorus
e--------------------------------------------------------|
B--------------------------------------------------------|
G----9----7-----5-----7--------9---7-----5------7--------|
D------7----7-----5-----7--------7---7-----5----7-5-5-2--|
A--0----------0-----0------0-0---------0------0---3-2-0--|
E--------------------------------------------------------|

                  

e----------------------------------------------------------------5-------|
B----------------------------------------8-7hb-5^----------------5-7hb-7-|
G----9----7-----5-----7--------9---7-----7-7------7-5hb------------7---7-|
D------7----7-----5-----7--------7---7------------------(5)h7~~~---------|
A--0----------0-----0------0-0---------0---------------------------------|
E------------------------------------------------------------------------|


Guitar Solo 
e|--------------------------------------------------|
B|--------------------------------------------------|
G|------------------------------2---------------7fb-|
D|-5h7~~~~--4h5-5~~~~---2h4--------(4)h7--[7]-------|
A|---------------------------0----------------------|
E|--------------------------------------------------|


e|------::::::::::::::::::::::::::---------------|
B|-8----:-8-8---8-8---8-8--8-8---:---------7---5-|
G|---7fb:-7-7---7-7---7-7--7-7---:7-5p0----7---5-|
D|--------------------------------------7----7---|
A|-----------------------------------------------|
E|-----------------------------------------------|

[ Tab from: http://www.guitartabs.cc/tabs/a/ac_dc/hells_bells_tab_ver_3.html ]
e|------------------------------------------------------------|
B|-------8~~~~~------7-7~~~~-----------8~~~~--------10--------|
G|-(7)/9-9~~~~~---0--7-7~~~~--5--(7)/9-9~~~~-(9)/11-11-11~~-9-|
D|------------------------------------------------------------|
A|------------------------------------------------------------|
E|------------------------------------------------------------|


e|--------------------------------------------------------------|
B|----13---------13-13---------13-13----------13----13----13----|
G|-14-14-(12)/14-14-14-(13)/14-14-14-13-13-14-14-14-14-14-14-14-|
D|--------------------------------------------------------------|
A|--------------------------------------------------------------|
E|--------------------------------------------------------------|


e|-10fb~~~-----:::::::---------------------------------------|
B|-13------12fb:-[12]:--10\15--15--13----15----15~~~~-15\----|
G|-------------------------14--14-----14----14--------14\----|
D|--------------------------------------------------------16-|
A|-----------------------------------------------------------|
E|-----------------------------------------------------------|


e|---------17-------17------17fb-17fb::::-------------------------|
B|-15-17fb----17fb-----17fb-17---17--17-:17--15h18p15----15/12/15-|
G|----------------------------------------------------16----------|
D|----------------------------------------------------------------|
A|----------------------------------------------------------------|
E|----------------------------------------------------------------|


e|------------------------17------------------------------------------------17-|
B|------20fb------20---------20--17----------------------------20fb-20fb~~-----|
G|-19fb-19---19fb----19fb-----------19fbr19p17----19-19hb----------------------|
D|---------------------------------------------19---------19p17----------------|
A|-----------------------------------------------------------------------------|
E|-----------------------------------------------------------------------------|
                                                                  
                                                                 End Guitar Solo
e|-17-20p17------17------------20fb--20hb--17------------------------------------|
B|----------20fb----20fb-20p17----------------20p17-19fb-19----------17~~--------|
G|----------------------------------------------------------19-16-19------19-19\-|
D|-------------------------------------------------------------------------------|
A|-------------------------------------------------------------------------------|
E|-------------------------------------------------------------------------------|

Chorus
e--------------------------------------------------------|
B--------------------------------------------------------|
G----9----7-----5-----7--------9---7-----5------7--------|
D------7----7-----5-----7--------7---7-----5----7-5-5-2--|
A--0----------0-----0------0-0---------0------0---3-2-0--|
E--------------------------------------------------------|

                                                      
e--------------------------------------------------------|
B--------------------------------------------------------|
G--9----7-----5-----7-------9---7-----5------7-----------|
D----7----7-----5-----7-------7---7-----5----7-5-5-2-----|
A-----------0-----0-----0-0---------0------0---3-2-0-----|
E--------------------------------------------------------|


Outro Guitar Solo
e|------::::::17::::::---------------------------:::17::::------------------------|
B|------:--------19--:---------------------------:-----19:------------------------|
G|-19fb:-------------:19~~~~~-17~~~-19~~~-19-19fb:-------:19~~~~-17~~~-19~~~-19fb-|
D|--------------------------------------------------------------------------------|
A|--------------------------------------------------------------------------------|
E|--------------------------------------------------------------------------------|

e|------------------------------------------------------|
B|-20\--------------------------------------------------|
G|------------------------------------------------------|
D|----------------------------------------(10)h12~~~-10-|
A|----------------12-10-12~~~~---12~~-12\---------------|
E|------17-17\15\---------------------------------------|

e|---------------------------------------------------------------------|
B|-10fbr---10fb-10\-----------------------------10fbr---10fb-10\--20fb-|
G|-12---12-12---12\-17hb-----------17-----------12---12-12---12\-------|
D|-----------------------19-17h19-----19-19-19\------------------------|
A|---------------------------------------------------------------------|
E|---------------------------------------------------------------------|

e|----17---------17------::::::::-------------------------17---------------------------|
B|-20----17-20fb----17-20:--20--:20\--20fb-20fb-20fb-20fb----20-17------------------20-|
G|-----------------------------------------------------------------19fbr19p17-19fb-----|
D|-------------------------------------------------------------------------------------|
A|-------------------------------------------------------------------------------------|
E|-------------------------------------------------------------------------------------|

e|-------::::------------------------------------------------------------|
B|-------:--:20-20fb-20fb-20------------------19-17--XXXXXXXXX----2----2-|
G|-19fb~~:19:---19---19---19fbr19-19~~~-17----19-17--XXXXXXXXX7p5-2----2-|
D|-----------------------------------------19---------------------2----2-|
A|----------------------------------------------------------------0----0-|
E|------------------------------------------------------------------3hb--|

PLEASE RATE THIS TAB!                                                              Zep3000
Comments