Ac Dc - Hell Aint A Bad Place To Be Chords & Tabs

 

Hell Aint A Bad Place To Be Chords & Tabs

Ac Dc Chords & Tabs

Version: 4 Type: Tab 0 ratings
1 star 2 stars 3 stars 4 stars 5 stars
comments

Hell Aint A Bad Place To Be Tab

   
Song: Hell Ain't a Bad Place to Be
Tabbed by: ACDC_Fan_52

Tuning: Standard

The intro goes like this:
G D G D G D A

The main riff goes like this:
E|--------------------------------------------------------|
B|--------------------------------------------------------|
G|--------------------------------2-2-2----2-2-2----------|
D|--------5--4--5--4--5--4------5-2-2-2--5-2-2-2----------|
A|--------0--0--0--0--0--0------0-0-0-0--0-0-0-0----------|
E|--------------------------------------------------------|

The part where the song goes "Knows I'm a Man" is like this:
E|------------------------------------------------------------|
B|------------------------3--------------3--------------------|
G|-----2--2--2------------2--------------2--------------------|
D|--5--2--2--2------------4--------------5--------------------|
A|--0--0--0--0------------0--------------0--------------------|
E|------------------------------------------------------------|
[ Tab from: http://www.guitartabs.cc/tabs/a/ac_dc/hell_aint_a_bad_place_to_be_tab_ver_4.html ]
The part where the song goes "Gotta See Crawls" is like this:
E|---------------------------------------------------------------|
B|--3------------------3--3--3--3----3--------0------------0--2--|
G|--2------------------2--2--2--2----2--------1------------1--2--|
D|--4------------------5--5--5--5----4--------2------------2--2--|
A|--0------------------0--0--0--0----0--------2------------2--0--|
E|--------------------------------------------0------------0-----|

Then not the chorus, but the single "Hell ain't a bad place to be" is like this:
E|-----------------------------------3--------------------------------------|
B|-----------------------------------3--------------------------------------|
G|--------------------1--------------0--------------------------------------|
D|--------------------2--------------0--------------------------------------|
A|--------------------2-----------------------------------------------------|
E|--------------------0--------------3--------------------------------------|

And that's it. I don't have the solo yet so if you know how to play it tell me.
Also, I haven't heard the song fully in a while, but I think the chorus is the same as the 
riff.

Good Luck!
Comments