Ac Dc - Heatseeker Chords & Tabs

 

Heatseeker Chords & Tabs

Ac Dc Chords & Tabs

Version: 3 Type: Tab 0 ratings
1 star 2 stars 3 stars 4 stars 5 stars
comments

Heatseeker Tab

   
Heatseeker by AC/DC
tabbed by Voytazz

  E5                                                                        B5
e|----------------------------------------------------------0-----0---0-----|
b|-x-----5----------------5----------------5--5--5--5-------0-----0---0-----|
g|-x-4---4-4--4--4--2--4--4-4--4--4--2--4--4--4--4--4--0-1--------1---1---4-|
D|-x-4---2-2--2--2--2-------2--2--2--2--------2--2--2----------x--------0-4-|
A|-x-2---------------------------------------------------------x--------0-2-|
E|-x------------------------------------------------------------------------|

Pattern 1:
  B
e|--------------------------------------------------------------------------|
b|--------------------------------------------------------------------------|
g|--4-----4---4--4-----4-4--4--4--4-----4--4----4-----4---4--4----4--4-4-4--|
D|--2--4--4---4--2--4--4-4--4--4--2--4--4--4----2--4--4---4--2--4-4--4-4-4--|
A|2---------2----------2-----------------------2---------2---------2--------|
E|--------------------------------------------------------------------------|
          end P1
e|-------------|
b|-------------|
g|-4-----4--4--|
D|-2--4--4--4--|
A|-------------|
E|-------------|

Pattern 2:
   A   B   E                      A    Bsus4 E
e|-5------------------------------5------------------------------------------|
b|-5---4---9-----9--9---9-9-9--9--5-----5----9----9--9---9--9--9--9----------|
g|-2---4---9-----9--9---9-9-9--9--2-----4----9----9--9---9--9--9--9----------|
D|-2---4---9-----9--9---9-9-9--9--2-----4----9----9--9---9--9--9--9----------|
A|-0---2---7-----7--7---7-7-7--7--0-----2----7----7--7---7--7--7--7----------|
E|---------0-----0--0---0-0-0--0-------------0----0--0---0--0--0--0----------|

Pattern 3: E5-Rock-Feel...

e|-------------------------------------------------------------------|
b|-------------------------------------------------------------------|
g|-4-----4-----4-----6-----4-------4-----4-----4-----6-----4---------|
D|-2-2-2-2-2-2-2-2-2-2-2-2-2-2-2-2-2-2-2-2-2-2-2-2-2-2-2-2-2-2-2-2---|
A|-------------------------------------------------------------------|
E|-------------------------------------------------------------------|


Heat-seek-er,...

e|--------------------------------------------------------------------------|
b|--------------------------------------------------------------------------|
g|---4-----4----4--4-----4--4--4--4--4-----5--7----7--7--4--5--7--7--7-4-5--|
D|---2--4--4----4--2--4--4--4--4--4--2--4--5--7----7--7--4--5--7--7--7-4-5--|
A|-2---------2-----------2-----------------3--5----5--5--2--3--5--5--5-2-3--|
E|--------------------------------------------------------------------------|
                                      ...down,
e|-------------------------------------------|
b|-------------------------------------------|
g|-7---4--5--7---4--5--7---4--2-----2--2--4--|
D|-7---4--5--7---4--5--7---4--2-----2--2--4--|
A|-5---2--3--5---2--3--5---2--0-----0--0--2--|
E|-------------------------------------------|
[ Tab from: http://www.guitartabs.cc/tabs/a/ac_dc/heatseeker_tab_ver_3.html ]
Solo:     ph                            b     b ph
e|---------------------------------------------------------------------------|
b|---------------------0-2--3----2--0-2--3--2--<3>------0--2--3----0--2-3-0--|
g|-------<4>-----------------------------------------------------------------|
D|---------------------------------------------------------------------------|
A|-2--2--------2---2---------------------------------------------------------|
E|---------------------------------------------------------------------------|
                                                               ph      B
e|--------------------------------------------------------------------------|
b|---3--0----3--0----------------------------------------------------10-12--|
g|2--------2-------2-----------------------------4------4------<4>----------|
D|--------------------4--2--0--4--2--0--4--2--0-----------------------------|
A|--------------------------------------------------------------------------|
E|--------------------------------------------------------------------------|
                                                            ~~~~~~~      B
e|---------------7--10-7-9-7-9-7----7---------------------------------------|
b|-----------19------------------10----10--7----7----------------------9-10-|
g|-------------------------------------------10---9-7---------------7--9-10-|
D|-----------------------------------------------------9---9----------------|
A|--------------------------------------------------------------------------|
E|--------------------------------------------------------------------------|
  r    B      B                                                  B   r
e|--------------------------------------------------------------------------|
b|-9-9--10--9--10--------------------------------------12--10---9--10--9-10-|
g|-9-9--10--9--10--7-----------------------------------13--11---9--10--9-10-|
D|-----------------------9-------7-7-7-7-7--9-4-0--0------------------------|
A|---------------------------9----------------------------------------------|
E|--------------------------------------------------------------------------|
           B    r          B      B             B          B      B      B
e|---------------------------------------12----------17------------17----17-|
b|9--7--9---10--9--7--9--9--10--9--10--------17-19-----17--19--17-19--17-19-|
g|9---7--9---10--9--7--9--9--10--9--10--------------------------------------|
D|--------------------------------------------------------------------------|
A|--------------------------------------------------------------------------|
E|--------------------------------------------------------------------------|
                      B      B      B      B
e|-17--17--17--17------17-----17-----17-----17---\----|
b|-19--19--19--19---17-19--17-19--17-19--17-19---\----|
g|----------------------------------------------------|
D|----------------------------------------------------|
A|----------------------------------------------------|
E|----------------------------------------------------|
    w/patt1                               ub     ub     ub     ub      b ~~~~~~
e|------------------------|-----------|-----7------7------7-------7--17-19|
b|------------------------|-----------|-10-12--10-12--10-12---10-12-------|
g|----4----4-----4--4--4--|-----------|-----------------------------------|
D|----2--4-4-----4--2--4--|-----------|-----------------------------------|
A|-2----------2--------2--|-----------|-----------------------------------|
E|------------------------|-----------|-----------------------------------|

ending Solo-...
     ub      ub          ub       ub           ub    ~~~~~~~ ~~~~~~  ~~~~~~
e|----19------19----------19-------19-----------19------------------------|
b|-22-24---22-24---22--22-24----22-24----22--22-24------------------------|
g|---------------------------------------------------4-------2------------|
D|------------------------------------------------------------------4-----|
A|------------------------------------------------------------------------|
E|------------------------------------------------------------------------|
     B      ~~~~~~~~~~~~~~~~~~~~~
e|-----------------------------------|
b|-----------------------------------|
g|-----------------------------------|
D|-----------------------------------|     Rock On!
A|-5--6-----2------------------------|
E|-----------------------------------|
Comments