Ac Dc - Heatseeker Chords & Tabs

 

Heatseeker Chords & Tabs

Ac Dc Chords & Tabs

Version: 2 Type: Tab 0 ratings
1 star 2 stars 3 stars 4 stars 5 stars
comments

Heatseeker Tab

   
ac/dc:heatseeker

Intro:

e-----------------------------------------------0--------- -------|
b--5---5---x--------5--x--------5--x--------5---0--x------ -------|
g--4---4---x---2h4--4--x---2h4--4--x---2h4--4---1--x------ ---4---|
d--4---2---x---2-2-----x---2-2-----x---2-2---------x------ ---4---|
a--2------------------------------------------------------ ---2---|
E--------------------------------------------------------- -------|

Riff A:
e------------------------------------------|
b------------------------------------------|
g----4---4---4---4----4--4----4---4----4---|       }x4
d----4---4---4---4----4--4----4---2----4---|
a--2-------2---------2------2---2----2-----|
E------------------------------------------|

Riff B:
e---5--------------------------------|
b---5--------------------------------|
g---2---4---9--9--9--9--9--9--9--9---|       }x2
d---2---4---9--9--9--9--9--9--9--9---|
a---0---2---7--7--7--7--7--7--7--7---|
E-----------0--0--0--0--0--0--0--0---|

Then do Riff A 2 times, then this:
[ Tab from: http://www.guitartabs.cc/tabs/a/ac_dc/heatseeker_tab_ver_2.html ]
Riff C:
      P.M.  P.M.  P.M.  P.M.  P.M.  P.M.  P.M.  P.M.  P.M.
e-----------------------------------------------------------|
b-----------------------------------------------------------|
g-----------------------------------------------------------|   }x2
d---4-----4-----4-----6-----4-----4-----4-----4-----6-------|
a---2-2-2-2-2-2-2-2-2-2-2-2-2-2-2-2-2-2-2-2-2-2-2-2-2-2-2---|
E-----------------------------------------------------------|

Then do Riff B 4 times

Then do Riff A 3 times

Then do this:

Riff D:
e---------    ------------------------------|
b---------    ------------------------------|
g---4~~---    -----7--4--5------------------|    }x7
d---4~~---    -----7--4--5------------------|
a---2~~---    -----5--2--3------------------|
E---------    ------------------------------|

Then do Riff C 2 times

Then do Riff B 2 times

Then do Riff A 3 times

Then do Riff D 7 times

Then do Riff A 2 times

Then do solo (which I am still learning)

Then do Riff C 1 time

Then do Riff A 2 times

Then do Riff C 1 time

Then do Riff A 1 time

Then do Riff B 4 times

Then do Riff A 1 time

Then do Riff D 6 times

Then do Riff A 4 times

Then there is another mini-solo


           The End
Comments