Ac Dc - Hard As A Rock Chords & Tabs

 

Hard As A Rock Chords & Tabs

Ac Dc Chords & Tabs

Version: 4 Type: Tab

Hard As A Rock Tab

PLEASE NOTE
This file is the author's own work and represents their interpretation of the
song. You may only use this file for private study, scholarship, or research.
 
ACDC - Hard as a rock   Tabbed by Jura Bartonek (Jago syn Jungle) from Czech Republic. 25.12.05. 
This is my sixth tab. 

INTRO:
E|-2-4-5---4-2-0-2-4-2---4-0---4-2-|
B|-0-0-0---0-0-0-0-0-0---0-0---0-0-|
G|---------------------------------|
D|---------------------------------|
A|---------------------------------|
E|---------------------------------|
play this four times

e[-----------------------------------------------------------------------]
B[-----------------------------------------------------------------------]
G[-----4-4-4-4----4-4-4-4---4-4-4-4---2----4-----------------------------]
D[--2--4-4-4-4--2-4-4-4-4-2-4-4-4-4---2-2--4-----------------------------]
A[--2--2-2-2-2--2-2-2-2-2-2-2-2-2-2-----2--2-----------------------------]
E[-----------------------------------------------------------------------] 

E|-5-4-2--4-5-4-2-4-5-4-2--*---------*--|
B|-0-0-0--0-0-0-0-0-0-0-0--*---------*--|
G|-------------------------*---2-----*--|
D|-------------------------*-2-2-2---*--|
A|-------------------------*-2-0-2---*--|
E|-------------------------*-0---0---*--|

E|-2-4-5---4-2-0-2-4-2----4-0----4-2-|
B|-0-0-0---0-0-0-0-0-0----0-0----0-0-|
G|-----------------------------------|
D|-----------------------------------|
A|-----------------------------------|
E|-----------------------------------|

e[-----------------]
B[--5-4-5-0--------]
G[-----------------]
D[-----------------]
A[-----------------]
E[-----------------] 
      2x
e[--------------*-------------------------------------------------------]
B[--------------*-------7-7--7-7-7--------------------------------------]
G[--2-------4---*-------------------------------------------------------]
D[--2--2-2--4---*--7/9--------------------------------------------------]
A[-----2-2--2---*-------------------------------------------------------]
E[--------------*-------------------------------------------------------] 
[ Tab from: http://www.guitartabs.cc/tabs/a/ac_dc/hard_as_a_rock_tab_ver_4.html ]
SOLO:
E|---------------------------10/12-14---------------------7-7-------------------------7------------------|
B|-----------------^--12--12--------------10/12-12-12-------7-7-7-9-7-9---7-----------7--9------7/9/10---|
G|----9-----7-9/11/9------------------------------------------7-7-9-7-9-9-7-------9------9--7---7/9/9----|
D|-----9--9-------------------------------------------------------------9-----9-9------------------------|
A|--------------------------------------------------------------------------------------------------------
E|-------------------------------------------------------------------------------------------------------|

e[-10---10--------14----12------12/14/12/10-12---------------10--12-12/14-14-12-10-----------------------]
B[---12--------12----12----12--------------------10/12-12-12----------------------12--12-12/19--15-12//--]
G[-------------------------------------------------------------------------------------------------------]
D[-------------------------------------------------------------------------------------------------------]
A[-------------------------------------------------------------------------------------------------------]
E[-------------------------------------------------------------------------------------------------------] 

E|-2-4-5---4-2-0-2-4-2----4-0----4-2-|
B|-0-0-0---0-0-0-0-0-0----0-0----0-0-|
G|-----------------------------------|
D|-----------------------------------|
A|-----------------------------------|
E|-----------------------------------|

e[-------------------------10-----12/14-14--10----------------------------------/10-10-10-10----]
B[------------------12--12---------------------12-12//----10/12-12-12-12--------/12-12-12-12-12-]
G[----------9/11-11-----------------------------------------------------------------------------]
D[----------------------------------------------------------------------------------------------]
A[-12--14---------------------------------------------------------------------------------------]
E[----------------------------------------------------------------------------------------------] 

10--12-14-10--------17---------10-10-----10-10----10-10-----]
-------------12--------17-17---12-12-12--12-12-12-12-12-----]
--------------------------16--------------------------------]
------------------------------------------------------------]
------------------------------------------------------------]
------------------------------------------------------------]

e[-*-10-----10-17-14----------/14-/14-14-14-/14--/14-12--/12-/12-/12--10-----------------------------------]
B[-*-12--12----------15-15/17--------------------------------------------12--10/12--10---------------------]
G[-*----------------------------------------------------------------------------------11--9/7---/4----4----]
D[-*--------------------------------------------------------------------------------------------------4----]
A[-*--------------------------------------------------------------------------------------------------2----]
E[-*-------------------------------------------------------------------------------------------------------]