Ac Dc - Go Down Chords & Tabs

 

Go Down Chords & Tabs

Ac Dc Chords & Tabs

Version: 1 Type: Tab 0 ratings
1 star 2 stars 3 stars 4 stars 5 stars
comments

Go Down Tab

Go down
Let There Be Rock, 1976
tabbed by Jason Bineider


Intro: (Angus and Malcolm play the same figures)

(spoken)
Ah 1 2 3
(feed back)         (hold chord)
------------>        ------------------------------------------------|
e|-------------------------------------------------------------------|
b|-------------------------------------------------------------------|
g|-2-----2------------2-----2------------2-----2------------2-----2--|
D|-2-----2------------2-----2------------2-----2------------2-----2--|
A|-0--3--0------------0--3--0------------0--3--0------------0--3--0--|
E|-------------------------------------------------------------------|

e|----------------------------------------------------------------|
b|----------------------------------------------------------------|
g|-2-----2-------2-----2------2-----2------2-----2-------2-----2--|
D|-2-----2-------2-----2------2-----2------2-----2-------2-----2--|
A|-0--3--0-------0--3--0------0--3--0------0--3--0-------0--3--0--|
E|----------------------------------------------------------------|


Verse

e|------------------------------------------------------------|
b|------------0------------------0------------------0---------|
g|-----2--2--0--2---------2--2--0--2------2--2--2--0--2------|
D|--2--2--2--0--2------2--2--2--0--2------2--2--2--0--2------|
A|---0--0--0--0--0------0--0--0--0--0------0--0--0--0--0------|
E|------------------------------------------------------------|

Rhythm Figure 2
V
e|-----------------------------------------------------|
b|-----------0----------------0----------------0-------|
g|-----2--2--0--2-------2--2--0--2----2--2--2--0--2----|
D|--2--2--2--0--2----2--2--2--0--2----2--2--2--0--2----|
A|--0--0--0--0--0----0--0--0--0--0----0--0--0--0--0----|
E|-----------------------------------------------------|

V			  Ruby, Ruby...
e|-------------------------------------------------------------|
b|-----------0----------------0-----------------------0--------|
g|-----2--2--0--2-------2--2--0--2-----2----2----2----0----2---|
D|--2--2--2--0--2----2--2--2--0--2-----2----2----2----0----2---|
A|--0--0--0--0--0----0--0--0--0--0-----0----0----0----0----0---|
E|-------------------------------------------------------------|
keep playing that riff untill

You got the lips....
e|-----------------------------------------------------------------|
b|-----------------------------------------------------------------|
g|----------9----9----9----7----9-------9----9----9----7----9------|
D|----------9----9----9----7----7-------9----9----9----7----9------|
A|----------7----7----7----5----7-------7----7----7----5----7------|
E|-----------------------------------------------------------------|


e|--------------------------------------------------------|
b|--------------------------------------------------------|
g|--9----9----9----7----9-------9----9----9----7----9-----|
D|--9----9----9----7----9-------9----9----9----7----9-----|
A|--7----7----7----5----7-------7----7----7----5----7-----|
E|--------------------------------------------------------|
[ Tab from: http://www.guitartabs.cc/tabs/a/ac_dc/go_down_tab.html ]
e|-------------------------------------------------------|
b|-------------------------------------------------------|
g|--5----5----5----7----5---------5----5----5----7--5----|
D|--5----5----5----7----5---------5----5----5----7--5----|
A|--3----3----3----5----3---------3----3----3----5--3----|
E|-------------------------------------------------------|

e|---------------------------------------------------------|
b|---------------------------------------------------------|
g|--5----5----5----7----5--------5----5----5-----7----5----|
D|--5----5----5----7----5--------5----5----5-----7----5----|
A|--3----3----3----5----3--------3----3----3-----5----3----|
E|---------------------------------------------------------|

Chours:

Play rhythm figure 1

Verse 2:

Play rhythm figure 2


Solo:

Will be tabbed at later date

Rhythm Figure 3
Guitar 1


e|-----------------------------------|
b|-----------------------------------|
g|--2----(2)----2----2----0----2-----|
D|--2-----2-----2----2----0----2-----|
A|--0-----3-----0----0----0----0-----|
E|-----------------------------------|

call and response bit


eww baby ruby it on
e|----------------------------------------------------|
b|---------------------------r---------------------|
g|----------------------7--7--7--7---5-----7-p-5-(5)--|
D|------------------------------------------------7---|
A|----------------------------------------------------|
E|----------------------------------------------------|

Ohhh its still sweet since you been gone
~~~~~~~~~
e|-------------------------------------------------------------|
b|--------------------------------------------*--*--*----------|
g|------------------------------------------------r-----------|
D|-------------------------------------------(7)-7--5----5-7-7-|
A|-------------------------------------------------------------|
E|-------------------------------------------------------------|
* Wide Vibratto
and no one else gotta touch like you
e|---------------------------------------------full---------------|
b|--------------------------------------------7---------------|
g|---------------------------------------7--7--------7--7-p-5-----|
D|--------------------------------------------------------------7-|
A|----------------------------------------------------------------|
E|----------------------------------------------------------------|
ewww feels good
~~~~~~~~~~~~~~~~~~~~~~~~~
e|--------------------------|----------------------full---|
b|-*--*--*---*---*--*--*--*-|----------------10--10--10-----|
g|-------5------------5-----|-------------------------------|
D|-7--7-----7----7--7----7--|-------------------------------|
A|--------------------------|-------------------------------|
E|--------------------------|-------------------------------|
* wide vibratto

ahhh ahhhh ahhhh
e|---------------------full-full-full--|
b|---------------------10---10---10----|
g|-------------------------------------|
D|-------------------------------------|ect...
A|-------------------------------------|
E|-------------------------------------|


guitar 1 chords


e|---------------------|
b|---------------------|
g|---------------------|
D|-2--0--2--0--2--0----|
A|-2--0--2--0--2--0----|
E|---------------------|
ECT....

Play rhythm figure 3,
play rhythm Figure 1,
FADE
Comments