Ac Dc - Girls Got Rhythm Chords & Tabs

 

Girls Got Rhythm Chords & Tabs

Ac Dc Chords & Tabs

Version: 4 Type: Tab 0 ratings
1 star 2 stars 3 stars 4 stars 5 stars
comments

Girls Got Rhythm Tab

This is the whole song (except the solo) 
Girls got Rhythm by AC/DC
Tabbed by Underhander


e --------------------------|
B --------------------------|
g -7--5------------5--------|
D -7--5------7-7---5--7-----| x3
A ------7/9------9----------|
E --------------------------|


e --------------------------|
B --------------------------|
g -7--5---------------------|
D -7--5------7-7---7--------| 
A ------7/9------9----------|
E --------------------------|


e --------------------------|
B --------------------------|
g -7--5------------5--------|
D -7--5------7-7---5--7-----| x8
A ------7/9------9----------|
E --------------------------|


e ------------------------------------|
B ------------------------------------|
g ------------------------------------|
D -4-4-4-4--4-4-4-4-------------------|
A -2-2-2-2--2-2-2-2--0-0-0-0--0-0-0-0-|
E -------------------2-2-2-2--2-2-2-2-|


e --------------------------|
B -7--7---------------------|
g -7--7------------5--------|
D -5--5------7-7---5--7-----| x3
A ------7/9------9----------|
E --------------------------|

[ Tab from: http://www.guitartabs.cc/tabs/a/ac_dc/girls_got_rhythm_tab_ver_4.html ]
e ----------5--5----5--5----5-----|
B ----------5--5----5--5----5-----|
g -7--5--7^------7^------7^-------|
D -7--5---------------------------| 
A --------------------------------|
E --------------------------------|


e --------------------------|
B --------------------------|
g -7--5------------5--------|
D -7--5------7-7---5--7-----| x3
A ------7/9------9----------|
E --------------------------|


e --------------------------|
B --------------------------|
g -7--5---------------------|
D -7--5------7-7---7--------| 
A ------7/9------9----------|
E --------------------------|


e --------------------------|
B --------------------------|
g -7--5------------5--------|
D -7--5------7-7---5--7-----| x8
A ------7/9------9----------|
E --------------------------|


e ------------------------------------|
B ------------------------------------|
g ------------------------------------|
D -4-4-4-4--4-4-4-4-------------------|
A -2-2-2-2--2-2-2-2--0-0-0-0--0-0-0-0-|
E -------------------2-2-2-2--2-2-2-2-|


e --------------------------|
B -7--7---------------------|
g -7--7------------5--------|
D -5--5------7-7---5--7-----| x3
A ------7/9------9----------|
E --------------------------|


e --------------------------|
B --------------------------|
g -7--5---------------------|
D -7--5------7-7---7--------| 
A ------7/9------9----------|
E --------------------------|
Comments