Ac Dc - Girls Got Rhythm Chords & Tabs

 

Girls Got Rhythm Chords & Tabs

Ac Dc Chords & Tabs

Version: 2 Type: Tab 2 ratings
1 star 2 stars 3 stars 4 stars 5 stars
comments

Girls Got Rhythm Tab

This is correct.

Intro
--------------------
--------------------
--7--5---------5----
--7--5---7-7---5-7--    repeat a few times,
------7s9----9---0--
--------------------

--------------------
--------------------
--7--5--------------    then do this bit once...
--7--5----7--7---7--
-------7s9-----9----

main riff...
[ Tab from: http://www.guitartabs.cc/tabs/a/ac_dc/girls_got_rhythm_tab_ver_2.html ]
-----------------------
-----------------------
--7--5-----------5-----
--7--5-----7-7---5--7--
--0--0-7s9-----9----0--
-----------------------

pre chorrus...

---------------------------
---------------------------
--4-4-4-4-4-4--2-2-2-2-2-2-
--4-4-4-4-4-4--2-2-2-2-2-2-
--2-2-2-2-2-2--0-0-0-0-0-0-
---------------------------

then repeat the main riff the chorrus!

There it is, a huge thanx goes to my guitar teacher frank connor
 for this tab, he worked it out.
Comments