Ac Dc - For Those About To Rock Chords & Tabs

 

For Those About To Rock Chords & Tabs

Ac Dc Chords & Tabs

Version: 2 Type: Tab 0 ratings
1 star 2 stars 3 stars 4 stars 5 stars
comments

For Those About To Rock Tab

drop d tuning- DGCFAD

For Those About To Rock by AC/DC

Tabbed by: Travis Olson
Email: fender@email.com

INTRO:
           >      >     >     >      >      >      >
-|---|-12--12--12--12--12--12--11--11--|15--14--13--12----------------|
-|---|-0-0-0-0-0-0-0-0-0-0-0-0-0-0-0-0-|0-0-0-0-0-0-0-----------------|
-|---|---------------------------------|------------------------------|x2
-|---|---------------------------------|------------------------------|
-|---|---------------------------------|------------------------------|
-|---|---------------------------------|------------------------------|

Then add this while playing first part:

|------------------|------------------|------------------|-------------|
|------------------|------------------|------------------|-------------|
|-4~---------------|--------------0---|-2--------1-------|-------------|
|-4~---------------|-----------0------|-0--------2-------|-------------|
|-2~---------------|------------------|----------2-------|-------------|
|------------------|--------3---------|-2-----x--0-------|-------------|
[ Tab from: http://www.guitartabs.cc/tabs/a/ac_dc/for_those_about_to_rock_tab_ver_2.html ]
|------------------|------------------|-3----------------|----------------|
|------------------|------------------|-3----------------|----------------|
|-4~---------------|------------------|-0------------1---|----------------|
|-4~---------------|------------------|-0-----2------2---|----------------|
|-2~---------------|------------------|-------2------2---|----------------|
|------------------|------------------|-3------------0---|----------------|

|------------------|------------------|------------------|----------------|
|------------------|------------------|------------------|----------------|
|-4-----4~---------|--------------0---|------------------|----------------|
|-4-----4~---------|-----------0------|-------0--2-------|----------------|
|-2-----0~---------|------------------|----0-----2-------|----------------|
|------------------|--------3---------|-2--------0-------|----------------|

|------------------|------------------|-3----------------|----------------|
|------------------|------------------|-3----------------|----------------|
|-4-----4~---------|------------------|-0-------------1--|----------------|
|-4-----4~---------|------------------|-0-----2-------2--|----------------|
|-2-----0~---------|------------------|-------2-------2--|----------------|
|------------------|------------------|-3-------------0--|----------------|

|--11--11--11--11--11--11|---11--11-----------------|
|--0-0-0-0-0-0-0-0-0-0-0-|-0-0-0-0------------------|
|------------------------|--------------------------|
|------------------------|--------------------------|
|------------------------|--------------------------|
|------------------------|--------------------------|

A very easy song!
Good luck!
Comments