Ac Dc - For Those About To Rock Chords & Tabs

 

For Those About To Rock Chords & Tabs

Ac Dc Chords & Tabs

Version: 1 Type: Bass Tab 0 ratings
1 star 2 stars 3 stars 4 stars 5 stars
comments

For Those About To Rock Bass Tab

Tabbed by: Tom (Q_ubert@hotmail.com)
Artist: AC/DC
Song: For Those About To Rock (We Salute You)
Album: Who Made Who

Intro
G----------|-------------------------------------------------
D----------|-------------------------------------------------
A----------|-------------------------------------------------
E--3-2-0--|----3-2------------3-2-0---------------------- 4x

Verse 1,2,3
G-----------------------------------------------------------
D-----------------------------------------------------------
A-----------------------------------------------------------
E--3-3-3-3----2-2-2-2----0-------3-2------------------- 4x
[ Tab from: http://www.guitartabs.cc/tabs/a/ac_dc/for_those_about_to_rock_btab.html ]
Chorus
G-----------------------------------------------------------
D-----------------------------------------------------------
A-----------------------------------------------------------
E--3-2------------3-2-0-----------------------------------

Solo
G-----------------------------------------------------------
D-----------------------------------------------------------
A-----------------------------------------------------------
E--3/55555----43----32---------------------------------

For Those… Fire!
G-----------------------------------------------------------
D-----------------------------------------------------------
A-----------------------------------------------------------
E--3-2-3-0------------------------------------------------

Outro
G-----------------------------------------------------------
D-----------------------------------------------------------
A-----------------------------------------------------------
E—000000-etc…--------3-2-3-0---Go- Nuts- (but keep to the beat)

Solo Works For Outro


Distribute this tab to anyone who wants it.
It’s not “right on” but it’s damn close.
Comments