Ac Dc - Dirty Eyes Chords & Tabs

 

Dirty Eyes Chords & Tabs

Ac Dc Chords & Tabs

Version: 1 Type: Tab 1 rating
1 star 2 stars 3 stars 4 stars 5 stars
comments

Dirty Eyes Tab

   
 DIRTY EYES
by AC/DC
Album: VOLTS
tabbed by mxking246@aol.com

B=bend
U.B=unisen bend
'''=tremelo picking
sb=short bend
/=slide up
\=slide down
R=release
|--------------------------------------------------------------------------------------|
|--------------------------------------------------------------------------------------|
|--------------------------------------------------------------------------------------|guitar 1
|-2-2-2--------2-2---2-4-2--4-2---2-2-2--------2-2-------------------------------------|
|-0-3-0--5--0--3-0---0-0-0--0-0---0-3-0--5--0--3-0-------------------------------------|
|--------------------------------------------------------------------------------------|plat 4 times

|--------------------------------------------------------------------------------------|
|--------------------------------------------------------------------------------------|
|--------------------------------------------------------------------------------------|guitar 1
|-2--4--2--4--2---2--2--2-----------2--2-----------------------------------------------|rythym fig 1
|-0--0--0--0--0---0--3--0---5---0---3--0-----------------------------------------------|
|--------------------------------------------------------------------------------------|
     sb      sb 
|--------------------------------------------------------------------------------------|
|--------------------------------------------------------------------------------------|
|--------------------------------------------------------------------------------------|guitar 2
|--2------2-------2----2--2--2-----------2--2------------------------------------------|rythym fig 1
|--0------0-------0----0--3--0---5---0---3--0------------------------------------------|
|-----3-------3------------------------------------------------------------------------|
                   guitar1 and 2 with rythym fig 1 play 8 times
|--------------------------------------------------------------------------------------|
|--------------------------------------------------------------------------------------|
|---2--2---2---2-----2--2-----2--------------------------------------------------------|guitars 1&2
|---0--0---0---3--4-----3--4--0--------------------------------------------------------|rythym fig 2
|--------------------------------------------------------------------------------------|
|--------------------------------------------------------------------------------------|

|--------------------------------------------------------------------------------------|
|--------------------------------------------------------------------------------------|
|--------------------------------------------------------------------------------------|rythym fig 3
|--------------------------------------------------------------------------------------|
|--2--2---2---2-----2--2-----2---------------------------------------------------------|
|--0--0---0---3--4-----3--4--0---------------------------------------------------------|

|--------------------------------------------------------------------------------------|
|--------------------------------------------------------------------------------------|
|--2---2-----------------2--2----------------2---2-------------------------------------|
|--2---2-----------------2--2----------------2---2-------------------------------------|
|--0---0-----------------0--0----------------0---0-------------------------------------|
|------------3---2---3-----------3---2---3---------------------------------------------|

|--------------------------------------------------------------------------------------|
|--------------------------------------------------------------------------------------|
|--------------------------------------------------------------------------------------|rythym fig 4
|--------------------------------------------------------------------------------------|
|--------------------------------------------------------------------------------------|
|--3-----2-----3-----2-----3-----4-----------------------------------------------------|
    guitar 2 with rythym fig 1, 4 times during solo
guitar solo:                  U.B  R
|---------------------------------------------------------------------------------------|
|------------------------------5------------7-------------------------------------------|
|--------------------------7--(9)--7--5-----7--5----------------------------------------|
|---7---7--7--5---7---------------------7---------7---7---------------------------------|
|---------------------------------------------------------------------------------------|
|---------------------------------------------------------------------------------------|

|---------------------------------------------------------------------------------------|
|---------------------------------8-10-8---8-10-8---8-10-8------------------------------|
|--5--5-------5--5-------5--7--9---------9--------9--------9----------------------------|
|--------7----------7-------------------------------------------------------------------|
|---------------------------------------------------------------------------------------|
|---------------------------------------------------------------------------------------|
[ Tab from: http://www.guitartabs.cc/tabs/a/ac_dc/dirty_eyes_tab.html ]
|---------------------------------------------------------------------------------------|
|--8-10-8---8-10-8---8-10-8---8-10-8-----------------10/15\10---------------------------|
|---------9--------9--------9--------9\-7-5----7--5-------------------------------------|
|-------------------------------------------7-------------------------------------------|
|---------------------------------------------------------------7-----------------------|
|--------------------------------------------------------------'''----------------------|
                                                               B  R  B                                                          
|------------------------------------------------------10-------------------------------|
|---------------------------------------------10---13-------13(15)13(15)----------------|
|--------------------9--------9----10----13--'''--'''-----------------------------------|
|------------10--12-'''--12--'''---'''--'''---------------------------------------------|
|---10--12--'''-'''------'''------------------------------------------------------------|
|--'''--'''-----------------------------------------------------------------------------|
                  guitar 2 with ryhtym fig 2  two times
      B     R     B       B       B    R       B           B       B       R 
|---------------------------------------------------12----------------------------------|
|--13(15)--13--15(17)--15(17)--15(17)--15---13(15)------15(17)--15(17)-----15-----------|
|---------------------------------------------------------------------------------------|
|---------------------------------------------------------------------------------------|
|---------------------------------------------------------------------------------------|
|---------------------------------------------------------------------------------------|
          B                                                                         B
|---------------12--15--12--15--12--15--12--15--12--15--12--15--12--15--12--15---15(17)-|
|--13--15(17)---------------------------------------------------------------------------|
|---------------------------------------------------------------------------------------|
|---------------------------------------------------------------------------------------|
|---------------------------------------------------------------------------------------|
|---------------------------------------------------------------------------------------|

|-/17---15-17-15-12------12-17-15-12----12-17-15-12----12-17-15-12----12-17-15-12-------|
|--------------------15--------------15-------------15-------------15-------------15----|
|---------------------------------------------------------------------------------------|
|---------------------------------------------------------------------------------------|
|---------------------------------------------------------------------------------------|
|---------------------------------------------------------------------------------------|
                                                            U.B     U.B     U.B
|--12-17-15-12----12-17-15-12----12-17-15-12----12-17-15-----12------12------12---------|
|--------------15-------------15-------------15-----------15(17)--15(17)--15(17)--------|
|---------------------------------------------------------------------------------------|
|---------------------------------------------------------------------------------------|
|---------------------------------------------------------------------------------------|
|---------------------------------------------------------------------------------------|end solo
 guitars 1&2 with rythym fig 1 throughout   (4times)

outro:
       B  R                             B  R
|----------------------------------------------------------------------------------------|
|----------------------------------------------------------------------------------------|
|----4(5)-4--2------2-----------------4(5)-4--2------2-----------------------------------|
|-2-------------4-------------2-----2------------4---------------------------------------|
|-0---------------------------0-----0----------------------------------------------------|
|--------------------------3-------------------------------------------------------------|
                  B  R                  B  R
|----------------------------------------------------------------------------------------|
|----------------------------------------------------------------------------------------|
|---------------4(5)-4--2------2------4(5)-4--2------2-----------------------------------|
|------2----2--------------4-------2-------------4---------------------------------------|
|------0----0----------------------0-----------------------------------------------------|
|----3-----------------------------------------------------------------------------------|
        B  R                  B  R            U.B
|----------------------------------------------0-----------------------------------------|
|-------------------------------------------3-(5)----------------------------------------|
|-----4(5)-4--2------2------4(5)-4--2----------------------------------------------------|
|--2-------------4-------2-------------4-------------------------------------------------|
|--0---------------------0---------------------------------------------------------------|
|----------------------------------------------------------------------------------------|

|--0-3-2-0---0-3-2-0---0-3-2-0---0-3-2-0---0-3-2-0---0-3-2-0---0-3-2-0---0-3-2-0---------|
|----------3---------3---------3---------3---------3---------3---------3---------3-------|
|----------------------------------------------------------------------------------------|
|----------------------------------------------------------------------------------------|
|----------------------------------------------------------------------------------------|
|----------------------------------------------------------------------------------------|
                                                                                         begin fade

|--0-3-2-0---0-3-2-0---0-3-2-0---0-3-2-0---0-3-2-0---0-3-2-0---0-3-2-0---0-3-2-0---------|
|----------3---------3---------3---------3---------3---------3---------3---------3-------|
|----------------------------------------------------------------------------------------|
|----------------------------------------------------------------------------------------|
|----------------------------------------------------------------------------------------|
|----------------------------------------------------------------------------------------|
please rate my tab
Comments