Ac Dc - Dirty Deeds Done Dirt Cheap Chords & Tabs

 

Dirty Deeds Done Dirt Cheap Chords & Tabs

Ac Dc Chords & Tabs

Version: 9 Type: Tab 0 ratings
1 star 2 stars 3 stars 4 stars 5 stars
comments

Dirty Deeds Done Dirt Cheap Tab

   
        ~~~~~~~~~~~~~~~   b~~~~~      r         ~~~~~~~~~~        b
-----|----------------|----------------------|---------------------------------
-----|----------------|----------------------|-----------------10(12)----------
-7-7-|----------------|--9(11)-----(11)^9^7--|-7------------7------------------
-----|--9-------------|----------------------|---------------------------------
-----|----------------|----------------------|---------------------------------
-----|----------------|----------------------|---------------------------------


-------------------------------------------------------------------------------
-12-----------12--12--12--12--12-----12--12-----12--12-----12--12--12----12--12
-------------------------------------------------------------------------------
-9------------9----9---9---9---9-----9----9-----9----9-----9----9---9----9----9
-------------------------------------------------------------------------------
-------------------------------------------------------------------------------
  ~~~~~~                                                        b  r
---------|---7--10^7--9^7------------------------------------------------------
-12------|-----------------10^7--9^7-------------------------------------------
---------|-----------------------------7----7---------------7^9(11)^9/(19)\----
-9-------|--------------------------------9-----9^7---9------------------------
---------|------------------------------------------9----9---------------------
---------|---------------------------------------------------------------------


-7^4^0-7^4^0-7^4^0-7^4^0-7^4^0-7^4^0-7^4^0-7^4^0-|-----------------------------
-------------------------------------------------|-----------------------------
-------------------------------------------------|-----------------------------
-------------------------------------------------|-----------------------------
-------------------------------------------------|-----------------------------
-------------------------------------------------|-----------------------------

-8^5^0-8^5^0-8^5^0-8^5^0-8^5^0-8^5^0-8^5^0-8^5^0-|-----------------------------
-------------------------------------------------|-----------------------------
-------------------------------------------------|-----------------------------
-------------------------------------------------|-----------------------------
-------------------------------------------------|-----------------------------
-------------------------------------------------|-----------------------------
[ Tab from: http://www.guitartabs.cc/tabs/a/ac_dc/dirty_deeds_done_dirt_cheap_tab_ver_9.html ]
-9^6^0-9^6^0-9^6^0-9^6^0-9^6^0-9^6^0-9^6^0-9^6^0-|-----------------------------
-------------------------------------------------|-----------------------------
-------------------------------------------------|-----------------------------
-------------------------------------------------|-----------------------------
-------------------------------------------------|-----------------------------
-------------------------------------------------|-----------------------------

-10^7^0-10^7^0-10^7^0-10^7^0-10^7^0-10^7^0-10^7^0-10^7^0-|---------------------
---------------------------------------------------------|---------------------
---------------------------------------------------------|---------------------
---------------------------------------------------------|---------------------
---------------------------------------------------------|---------------------
---------------------------------------------------------|---------------------

-11^8^0-11^8^0-11^8^0-11^8^0-12^9^0-12^9^0-12^9^0-12^9^0-|---------------------
---------------------------------------------------------|---------------------
---------------------------------------------------------|---------------------
---------------------------------------------------------|---------------------
---------------------------------------------------------|---------------------
---------------------------------------------------------|---------------------

-13^10^0-13^10^0-13^10^0-13^10^0-14^11^0-14^11^0-14^11^0-14^11^0-|-------------
-----------------------------------------------------------------|-------------
-----------------------------------------------------------------|-------------
-----------------------------------------------------------------|-------------
-----------------------------------------------------------------|-------------
-----------------------------------------------------------------|-------------

-15^12^0-15^12^0-15^12^0-15^12^0-16^13^0-16^13^0-16^13^0-16^13^0-|-------------
-----------------------------------------------------------------|-------------
-----------------------------------------------------------------|-------------
-----------------------------------------------------------------|-------------
-----------------------------------------------------------------|-------------
-----------------------------------------------------------------|-------------
                                        b 
-17^14^0-17^14^0-17^14^0-17^14^0--|---17(19)-----------------------------------
----------------------------------|--------------------------------------------
----------------------------------|--------------------------------------------
----------------------------------|--------------------------------------------
----------------------------------|--------------------------------------------
----------------------------------|--------------------------------------------

 I know this is right so have fun good luck and rock on and don't have any
dirty deed because they are done dirt cheap.

{em47}

b=bend #'s in ()tells you how far to bend
r=release bend
^=hamer on's and pull off's 
/ \ = slides
Comments