Ac Dc - Dirty Deeds Done Dirt Cheap Chords & Tabs

 

Dirty Deeds Done Dirt Cheap Chords & Tabs

Ac Dc Chords & Tabs

Version: 7 Type: Tab 0 ratings
1 star 2 stars 3 stars 4 stars 5 stars
comments

Dirty Deeds Done Dirt Cheap Tab

   
Dirty Deeds Done Dirt Cheap

A C / D C

Tabbed By Aaron Bridgeman (rokken@sicness.net)


http://bogans.arecool.net

KEY:
/ = slide up

INTRO:
e|-----------------------------------|
B|-----------------------------------|
G|----------------------------7------|
D|-2-----5--2-2-----7--2-2----7--2-2-|
A|-2-----5--2-2-----7--2-2----5--2-2-|
E|-0-----3--0-0-----5--0-0-------0-0-|
[ Tab from: http://www.guitartabs.cc/tabs/a/ac_dc/dirty_deeds_done_dirt_cheap_tab_ver_7.html ]
VERSE:
e|---------------|
B|---------------|
G|-7-7/9---------|
D|-7-7/9- ring --|
A|-5-5/7---------|
E|---------------|

PRE-CHORUS:
e|---------------------------|
B|---------------------------|
G|-7-7/9-7/9-7/9-7/9-9-9-9-9-|
D|-7-7/9-7/9-7/9-7/9-9-9-9-9-|
A|-5-5/7-5/7-5/7-5/7-7-7-7-7-|
E|---------------------------|

CHORUS:
e|----------------------------|
B|----------------------------|
G|-2--------------9---9--7--9-|
D|-2---7--5--7----9---9--7--9-|
A|-0---7--5--7----7---7--5--7-|
E|-----5--3--5----0-----------|

That's all I can be stuffed, tab for solo is around.
Comments