Ac Dc - Dirty Deeds Done Dirt Cheap Chords & Tabs

 

Dirty Deeds Done Dirt Cheap Chords & Tabs

Ac Dc Chords & Tabs

Version: 5 Type: Tab 9 ratings
1 star 2 stars 3 stars 4 stars 5 stars
comments

Dirty Deeds Done Dirt Cheap Tab


song: dirty deeds done dirt cheap
artist:ac dc
album: dirty deeds done dirt cheap

moderate rock=134

this is my first tab, so sorry if anything's wrong with it.

during the verse, the chords are right, but u have to listen to
the song to get the timing right. 

h-hammer on
p-pull off
~-let ring
^-bend
.-slight pm

intro

E|------------------|----------------|
B|------------------|----------------|
G|-----------------0|-------------2--|
D|2~------------x--0|---2-----x---2--|
A|2~------------x--x|---2-----x---0--|
E|0~------------x--3|---0-----x------|

|----------------|
|----------3-----|
|----------2-----|
|2------x--0----2|
|2------x--0----2|
|0------x-------0|

                  throughout verse

|-----------------|-----------------------|-------------|
|-----------------|-----------------------|-------------|
|----------7------|o9------------------(9)|----------7-o|
|-2--------7------|-9------------------(9)|----------7--|
|-2--------5------|o7------------------(7)|----------5-o|
|-0---------------|-0------------------(0)|-------------|



end of verse

|-----------------------------------------|
|-----------------------------------------|
|---9------------7--------9--------------7|
|---9------------7--------9--------------7|
|---7------------5--------7--------------5|
|---0---------------------0---------------|

|-----------------------------------|
|-----------------------------------|
|9--------7-------9---9---9----9---9|
|9--------7-------9---9---9----9---9|
|7--------5-------7---7---7----7---7|
|0----------------0---0---0----0---0|


chorus

|---------------------------------|
|---------------------------------|
|2---------------2----0-----2-----|
|2---------------2----0-----2-----|
|0---------------0----x-----0-----|
|---------------------3^----------|

|-----------------------------------------------------|
|-----------------------------------------------------|
|9-----7-----9-----x-------2--------------2-----0----2|
|9-----7-----9-----x-------2--------------2-----0----2|
|7-----5-----7-----x-------0--------------0-----x----0|
|0-----------0-----x----------------------------3^----|

|-------------|
|-------------|
|----7^-----7^|
|-------------|
|-------------|
|-------------|



solo

|-----------------------------------------------------------7-------|
|----------------------------------------------------10--------7h10-|
|-------------------9^---------^9r(9)p7-----------7-----------------|
|9~------------(9)p7------------------------------------------------|
|-------------------------------------------------------------------|
|-------------------------------------------------------------------|

|-----------------------------------------------------------------|
|-----------------------------------------------------------------|
|4-------------x---2---2---2----4--------------x-----2----2------2|
|4-------------x---2---2---2----4--------------x-----2----2------2|
|2-------------x---0---0---0----2--------------x-----0----0------0|
|-----------------------------------------------------------------|

|------------------------------------------------------------------
|------------------------------------------------------------------
|------------------------------------------------------------------
|9-----9-----9---9---x---9----x-----9----9----------0---9----9----x
|----------------------------------------------0-------------------
|------------------------------------------------------------------
       .     .   .   .   .    .     .    .     .    .   .    .    .

--------------------------------------------------------------------
--------------------------------------------------------------------
------7----------------------4----------------2-------2-------2-----
x----------9------9/---------4----------------2-------2-------2-----
-----------------------------2----------------0-------0-------0-----
--------------------------------------------------------------------
.     .    .  

--7----10p7-----7---------------------------------------------------
-------------7-----10--7--9--7--------------------------------------
---------------------------------9p7-------7-------------------9^full
---------------------------------------9-------9p7------9---9-------
-----------------------------------------------------9--------------
--------------------------------------------------------------------
[ Tab from: http://www.guitartabs.cc/tabs/a/ac_dc/dirty_deeds_done_dirt_cheap_tab_ver_5.html ]
--------------------------------------------------------
-------------------------3---------3---------3----------
------4------------------2---------2---------2----------
------4------------------0---------0---------0----------
------2---------------------------------------------0---
--------------------------------------------------------

E-----7p4p0-7p4p0-7p4p0-7p4p0-7p4p0-7p4p0-7p4p0-7p4p0---------------
B-------------------------------------------------------------------
G-------------------------------------------------------------------


E-----8p5p0-8p5p0-8p5p0-8p5p0-8p5p0-8p5p0-8p5p0-8p5p0--------------
B------------------------------------------------------------------
G------------------------------------------------------------------


E-----9p6p0-9p6p0-9p6p0-9p6p0-9p6p0-9p6p0-9p6p0-9p6p0--------------
B------------------------------------------------------------------
G------------------------------------------------------------------

E-----10p7p0-10p7p0-10p7p0-10p7p0-10p7p0-10p7p0-10p7p0-10p7p0------
B------------------------------------------------------------------
G------------------------------------------------------------------

E-----11p8p0-11p8p0-11p8p0-11p8p0-12p9p0-12p9p0-12p9p0-12p9p0-------
B-------------------------------------------------------------------
G-------------------------------------------------------------------

E-----13p10p0-13p10p0-13p10p0-13p10p0-14p11p0-14p11p0-14p11p0-14p11p0
B-------------------------------------------------------------------
G-------------------------------------------------------------------

E-----15p12p0-15p12p0-15p12p0-15p12p0-17p14p0-17p14p0-17p14p0-17p14p0
B-------------------------------------------------------------------
G-------------------------------------------------------------------

outro

------------------------------|-------------------------------------|
------------------------------|-------------------------------------|
--------9-----5-----9-----x---|---------------0-----------------2---|
-2------9-----5-----9-----x---|--2--------x---0-----2------x----2---|
-2------7-----7-----7-----x---|--2--------x---x-----2------x----0---|
-0------0-----------0-----x---|--0--------x---3-----0------x--------|


|-------------------------------------------------------------------|
|-----------------------------------------------------------9-----9-|
|--------------------------9-------7------9--------x--------9-----9-|
|-----2--------------------9-------7------9--------x--------9-----9-|
|-----2--------------------7-------5------7--------x--------7-----7-|
|-----0--------------------0--------------0--------x--------0-----0-|

|-----------------------------------|--------------------------------
|---9----9------9-----9----x----12--|-----9--------------9-----9-----
|---9----9------9-----9----x----12--|-----9--------------9-----9-----
|---9----9------9-----9----x----12--|-----9--------------9-----9-----
|---7----7------7-----7----x----10--|-----7--------------7-----7-----
|---0----0------0-----0----x--------|-----0--------------0-----0-----

-----------------------------------------------------------|
-x------14------9-----9----------9-----9-----9-----9-----9-|
-x------14------9-----9----------9-----9-----9-----9-----9-|
-x------14------9-----9----------9-----9-----9-----9-----9-|
-x------12------7-----7----------7-----7-----7-----7-----7-|
-x--------------0-----0----------0-----0-----0-----0-----0-|

|--------------------------------|------------------------------------|
|--9----7-----9----x-----9-----9-|--9------9--------9-----9----x----12|
|--9----7-----9----x-----9-----9-|--9------9--------9-----9----x----12|
|--9----7-----9----x-----9-----9-|--9------9--------9-----9----x----12|
|--7----5-----7----x-----7-----7-|--7------7--------7-----7----x----10|
|--0----------0----x-----0-----0-|--0------0--------0-----0----x------|

|---------------------------------------------------------------------|
|--9-----9-------------9---------x------------------------------------|
|--9-----9-------------9---------x-------2----------------------------|
|--9-----9-------------9---------x-------2-----------2------2---0---0-|
|--7-----7-------------7---------x-------0-----------2------2---0---0-|
|--0-----0-------------0---------x-------------------0----------------|

|-----------------------------|
|---------3-------------------|
|---------2-------2-----------|
|--2------0-------2-----------|
|--2------0-------0-----------|
|--0--------------------------|


thats it. hope i didnt mess up on anything.  any questions, comments, complaints, email me at metallica50002k3@netscape.net

Comments