Ac Dc - Cold Hearted Man Chords & Tabs

 

Cold Hearted Man Chords & Tabs

Ac Dc Chords & Tabs

Version: 2 Type: Tab 0 ratings
1 star 2 stars 3 stars 4 stars 5 stars
comments

Cold Hearted Man Tab

Cold Hearted Man

  Intro
E|----------------------|-------------------|---------------------|
B|----------------------|-------------------|---------------------|
G|--2------5------------|--4----------------|--7------5-----------|
D|--2------5------0-2---|--5----------------|--7------5------5----|
A|--0------3------------|--5----------------|--5------3------5----|
E|----------------------|--3----------------|----------------3----|

                                        Verse:
|-------------------|------------------|-------------------|------------------|
|-------------------|------------------|-------------------|------------------|
|--2----------------|------------------|--2----------------|------------------|
|--2----------------|------------------|--2----------------|------------------|
|--0----------------|------------------|--0----------------|------------------|
|-------------------|------------------|-------------------|------------------|

|-------------------|------------------|-------------------|------------------|
|-------------------|------------------|-------------------|------------------|
|--5----------------|------------------|-------------------|------------------|
|--5----------------|------------------|--5----------------|------------------|
|--3----------------|------------------|--5----------------|------------------|
|-------------------|------------------|--3----------------|------------------|

|--------------------|--------------------|-------------------|
|--------------------|--------------------|-------------------|
|--5------7----------|---------2----------|--2----------------|
|--5------7----------|--5------2----------|--2----------------|
|--3------5----------|--5------0----------|--0----------------|
|--------------------|--3-----------------|-------------------|

|------------------|-------------------|------------------|-------------------|
|------------------|-------------------|------------------|-------------------|
|------------------|--5----------------|------------------|-------------------|
|------------------|--5----------------|------------------|--5----------------|
|------------------|--3----------------|------------------|--5----------------|
|------------------|-------------------|------------------|--3----------------|
[ Tab from: http://www.guitartabs.cc/tabs/a/ac_dc/cold_hearted_man_tab_ver_2.html ]
                                           Chorus:
|---------------------|-------------------|----------------------|
|---------------------|-------------------|----------------------|
|--7------5-----------|--2----------------|--2------5------------|
|--7------5------5----|--2----------------|--2------5------0-2---|
|--5------3------5----|--0----------------|--0------3------------|
|----------------3----|-------------------|----------------------|

|-------------------|------------------------|--------------------|
|-------------------|------------------------|--------------------|
|--4----------------|----4--4----4--4--4--4--|--7------6----------|
|--5----------------|----5--5----5--5--5--5--|--7------7----------|
|--5----------------|----5--5----5--5--5--5--|--5------7----------|
|--3----------------|----3--3----3--3--3--3--|---------5----------|

|----------------------|-------------------|------------------------|
|----------------------|-------------------|------------------------|
|--2------5------------|--4----------------|----4--4----4--4--4--4--|
|--2------5------0-2---|--5----------------|----5--5----5--5--5--5--|
|--0------3------------|--5----------------|----5--5----5--5--5--5--|
|----------------------|--3----------------|----3--3----3--3--3--3--|

|--------------------|----------------------|-------------------|
|--------------------|----------------------|-------------------|
|--7------6----------|--2------5------------|-------------------|
|--7------7----------|--2------5------0-2---|--5----------------|
|--5------7----------|--0------3------------|--5----------------|
|---------5----------|----------------------|--3----------------|

                                           after 2nd chorus:
|---------------------|-------------------|-------------------------|
|---------------------|-------------------|-------------------------|
|--7------5-----------|--2----------------|-----------5-------------|
|--7------5------5----|--2----------------|--7-----------5----------|
|--5------3------5----|--0----------------|-----7--7--------7/-9----|
|----------------3----|-------------------|-------------------------|

|----------------------|-------------------------|----------------------|
|----------------------|-------------------------|----------------------|
|--7--------5----------|-----------5-------------|--7--------5----------|
|-----7----------------|--7-----------5----------|-----7----------------|
|--------7-------------|-----7--7--------7/-9----|--------7-------------|
|----------------------|-------------------------|----------------------|


Tablature by Clemens Fehlow.
AC/DC Tablature Page - "http://www.badboyboogie.de".

 
Comments