Ac Dc - Bonny Chords & Tabs

 

Bonny Chords & Tabs

Ac Dc Chords & Tabs

Version: 4 Type: Tab

Bonny Tab

   
This Lasts 1:03 From The AC/DC Live Album
Tab By Christopher Mcwhirter

E--------------------------------------|
B--------------------------------3-5-3-|
G-0-0-2-4-4-2-0-0--------0-0-2-4-------|
D-----------------2-0-0-2--------------|
A--------------------------------------|
E--------------------------------------|
[ Tab from: http://www.guitartabs.cc/tabs/a/ac_dc/bonny_tab_ver_4.html ]
E---------------------------------------------------|
B-3-5-5-3-0-0-3-1-0-------------------3-5-3-0-------|
G-------------------2-0-0-------0-0-4---------2-4-2-|
D-------------------------2-0-2---------------------|
A---------------------------------------------------|
E---------------------------------------------------|

E-3-|
B---|
G-0-|
D-5-|
A-5-|
E-3-|

Then Ends off in Highway To Hell