Ac Dc - Big Balls Chords & Tabs

 

Big Balls Chords & Tabs

Ac Dc Chords & Tabs

Version: 3 Type: Tab 0 ratings
1 star 2 stars 3 stars 4 stars 5 stars
comments

Big Balls Tab

1.
|-----------------------------------------------------------
|-----------------------------------------------------------
|-9--9-8-7-5--5-7-8-9--9-8-7-5--5-7-8-9--9-8-7-5--5/7-7/4-4-
|-9--9-8-7-5--5-7-8-9--9-8-7-5--5-7-8-9--9-8-7-5--5/7-7/4-4-
|-7--7-6-5-3--3-5-6-7--7-6-5-3--3-5-6-7--7-6-5-3--3/5-5/2-2-
|-----------------------------------------------------------

---------|
---------|
-4-4-4-4-|
-4-4-4-4-|
-2-2-2-2-|
---------|

[ Tab from: http://www.guitartabs.cc/tabs/a/ac_dc/big_balls_tab_ver_3.html ]
2.
|---------------------------------------|
|---------------------------------------|
|-9---5---9---5---9---5---7---4-4-4-4-4-|
|-9---5---9---5---9---5---7---4-4-4-4-4-|
|-7---3---7---3---7---3---5---2-2-2-2-2-|
|---------------------------------------|


3.
|-----------------------------------------------------------
|-----------------------------------------------------------
|-9-9-9-9-7-5-5-5-5-7-9-9-9-9-7-5-5-5-5-7-9-9-9-9-7-7-7-7-7-
|-9-9-9-9-7-5-5-5-5-7-9-9-9-9-7-5-5-5-5-7-9-9-9-9-7-7-7-7-7-
|-7-7-7-7-5-3-3-3-3-5-7-7-7-7-5-3-3-3-3-5-7-7-7-7-5-5-5-5-5-
|-----------------------------------------------------------

-------------|
-------------|
-5-4-4-4-4-4-|
-5-4-4-4-4-4-|
-3-2-2-2-2-2-|
-------------|

those make up the whole song, you can work out the order of it, it's not really very hard.
 part 3 of the song is palm muted until the last 5 chords
Comments